Song name
# A B C D E F G H I J K L M N O P Q R S T U V W X Y Z

Crowbar - Decembers Spawn tab

Band:  CROWBAR
Album: Odd Fellows Rest
Song:  December's Spawn

Transcribed by:	general maxx
Tuning:	2.5 steps down

Keys:
  b  - bend
  r  - release bend
 / \ - slide
 ___ - palm mute


INTRO:

|-------------------------------------------------|
|-------------------------------------------------|
|------------------(4brbr)------------------------|
|-------------------4brbr----------------------0--|
|-------------2--2-------------------------2-0-0--|
|-2--2--2--0--0-----------/7--7--3--3--2-3--------|

 ------------------------------------------|
 ------------------------------------------|
 ---------------(4brbr)--------------------|
 ----------------4brbr---------------------|
 -------2--2--2----------------------------|
 -3--2--0--0-----------/7--7--3--3--/10~-\-| 3x

|-------------------------------------------------|
|-------------------------------------------------|
|------------------(4brbr)------------------------|
|-------------------4brbr----------------------0--|
|-------------2--2-------------------------2-0-0--|
|-2--2--2--0--0-----------/7--7--3--3--2-3--------|

 ----------------------------------------|
 ----------------------------------------|
 ---------------(4brbr)-------------7----|
 ----------------4brbr--------------7----|
 -------2--2--2---------------------5----|
 -3--2--0--0-----------/7--7--3--3-------|


NOTE - (Gtr 3) final 2x of intro:
|-0-----------|
|----0--------|
|-------------|
|-------------|
|-------------|
|-------------|


RIFF A:

|---------------------------------------------------|
|---------------------------------------------------|
|------------------------------------------------2--|
|-4--4--4--2--2--------------4--4--5--5----------0--|
|-4--4--4--2--2--------------2--2--5--5------2-0-0--|
|-2--2--2--0--0--------------2--2--3--3--2-3--------|

 ------------------------------------------|
 ------------------------------------------|
 -------------------------------------7----|
 -5--4--2--2--------------4--4--5--5--7----|
 -5--4--2--2--------------2--2--5--5--5----|
 -3--2--0--0--------------2--2--3--3-------| 4x


RIFF B:

|---------------------------------------------------|
|---------------------------------------------------|
|------------------------------------------------2--|
|-4--4--4--2--2--------------4--4--5--5----------0--|
|-4--4--4--2--2--2--2--2--2--2--2--5--5------2-0-0--|
|-2--2--2--0--0--0--0--0--0--2--2--3--3--2-3--------|
                 __________

 ------------------------------------------|
 ------------------------------------------|
 -------------------------------------7----|
 -5--4--2--2--------------4--4--5--5--7----|
 -5--4--2--2--2--2--2--2--2--2--5--5--5----|
 -3--2--0--0--0--0--0--0--2--2--3--3-------| 2x
              __________


RIFF C:

|-------------------------------------------------------|
|-------------------------------------------------------|
|-------------------------------------------------------|
|-/11-----11\-----------/7--7--6-----4----------12--12\-|
|------9----------5-----/5--5--4--2-----2--/10----------|
|--------------3-----3----------------------------------| 4x


FILL:

|------------------(0)----------------------------|
|---------------------(0)-------------------------|
|------------------(4brbr)---------------------2--|
|-------------------4brbr----------------------0--|
|-------------2--2-------------------------2-0-0--|
|-2--2--2--0--0-----------/7--7--3--3--2-3--------|

 ------------------------------------------|
 ------------------------------------------|
 -------------------------------------7----|
 -5--4--2--2--------------4--4--5--5--7----|
 -5--4--2--2--------------2--2--5--5--5----|
 -3--2--0--0--------------2--2--3--3-------|


RIFF B - 2x


RIFF C - 4x


OUTRO:

|---------------------------------------------------|
|---------------------------------------------------|
|---------------------------------------------------|
|------------------------------------------8--------|
|------------------------------4--4--2--2--6--------|
|-3--3--3--3/4-3--3--3/4-3--3--2--2--0--0--6--8-7~\-| 4x

(Gtr 1)
|---------------------------------------------------|
|---------------------------------------------------|
|---------------------------------------------------|
|------------------------------------------8--------|
|------------------------4--4--3--3--2--2--6--------|
|-3--3--3--3/4-3--3--3/4-2--2--1--1--0--0--6--8-7~\-|

(Gtr 2)
|---------------------------------------------------|
|---------------------------------------------------|
|---------------------------------------------------|
|---------------------------------------------------|
|------------------------9--9--8--8--7--7--6--------|
|-3--3--3--3/4-3--3--3/4----------------------8-7~\-| 4x
Tap to rate this tab
 
# A B C D E F G H I J K L M N O P Q R S T U V W X Y Z