Song name
# A B C D E F G H I J K L M N O P Q R S T U V W X Y Z

Crowbar - Its All In The Gravity tab

Band:  CROWBAR
Album: Odd Fellows Rest
Song:  It's All In The Gravity

Transcribed by:general maxx

Tuning:	3.5 steps down

Keys:
 / \ - slide
 ___ - palm mute
 x\\ - pick scrape
  h  - hammer on
  p  - pull off


INTRO/VERSE:

|---------------------------|
|---------------------------|
|---------------------------|
|-----------------------10\-|
|------------------------8\-|
|-6-5-4-5-4-3--4-3--2-0-----| 10x


CHORUS:

|---------------------|
|---------------------|
|---------------------|
|-5--5--4--2----------|
|-3--2--2--2--4-5-4-2-|
|-------------2-3-2-0-| 4x
              _______


VERSE - 6x


CHORUS - 8x


INTERLUDE:

|----------------------------------------------------------------------|
|----------------------------------------------------------------------|
|-------------14----14--------------12---12----------------------------|
|-12----12-11----11----11-10---10-9----9-------8--8--------------------|
|----12----------------------8-----------------8--8------2-2-2-2-2-2-2-|
|-------------------------------------------/\-6--6--x\\-0-0-0-0-0-0-0-|
                                                         _____________

|-----------------------------------------------|
|-----------------------------------------------|
|-----------------------------------------------|
|-----9\--0-0h2-0h2-3p2-----9\--0-0h2-0h2-3h4p2-|
|-2-2-7\----------------2-2-7\------------------|
|-0-0-------------------0-0---------------------|

|----------------------------------------------------------------------|
|----------------------------------------------------------------------|
|-------------14----14--------------12---12----------------------------|
|-12----12-11----11----11-10---10-9----9-------8--8--------------------|
|----12----------------------8-----------------8--8------2-2-2-2-2-2-2-|
|-------------------------------------------/\-6--6--x\\-0-0-0-0-0-0-0-|
                                                         _____________

|-------------------------------------------------|
|-------------------------------------------------|
|-------------------------------------------------|
|-----9\--0-0h2-0h2-3h4p2-----9\------------6/7p5-|
|-2-2-7\------------------2-2-7\--3-3h5-3h5-------|
|-0-0---------------------0-0---------------------| 4x


OUTRO: (fades out)

|-------------------------------------------------|
|-------------------------------------------------|
|-------------------------------------------------|
|-2--2-7--------------------2--2-7----------------|
|-2--2-5--------------------2--2-5----------------|
|-0--0-3--4/5-3~-4/5-3~-4/5-0--0-3--4/5-3~-4/5-3~-|
Tap to rate this tab
# A B C D E F G H I J K L M N O P Q R S T U V W X Y Z