Song name
# A B C D E F G H I J K L M N O P Q R S T U V W X Y Z

Crowbar - Scattered Pieces Lay tab

Band:  CROWBAR
Album: Odd Fellows Rest
Song:  Scattered Pieces Lay

Transcribed by:	general maxx

Tuning:	2.5 steps down

Keys:
 ___ - palm mute
  h  - hammer on
  x  - mute
 / \ - slide
  p  - pull off


INTRO:

|--------------------------------------------------------|
|--------------------------------------------------------|
|--------------------------------------------------------|
|------------------------8-8-8-7-7-7-5-5-5-4-4-4-4-4-4-4-|
|-9-9-8-8-9-9-8-8-8h9----8-8-8-7-7-7-5-5-5-4-4-4-4-4-4-4-|
|---------------------6--6-6-6-5-5-5-3-3-3-2-2-2-2-2-2-2-| 6x
    _   _   _   _


RIFF A:

|----------------------------------|
|----------------------------------|
|----------------------------------|
|-2--xx-8--------------------------|
|-2--xx-6--------------------------|
|-0--xx-6--8~-7~-6~-5-6~-8-9--9h10-| 2x


RIFF B:

|----------------------------------------------------|
|----------------------------------------------------|
|----------------------------------------------------|
|-2--7-----------------------2--7--------------------|
|-2--5-----------------2-4-2-2--5--------------------|
|-0--5--7~-6~-4~-3-4~--0-2-0-0--5--7~-6~-5-6-5-4~-/\-| 4x
                       _____


INTRO - 6x


RIFF A - 2x


RIFF B - 4x


FILL:

|-------------------------|
|-------------------------|
|-------------------------|
|-2--2--2--2--2--2--2--2--|
|-2--2--2--2--2--2--2--2--|
|-0--0--0--0--0--0--0--0--|
  ___________________


RIFF C:

|-----------------------------------------------------------|
|-----------------------------------------------------------|
|-----6-----6-----6p4---6----6------------------------------|
|-/4-----4-----4------0----0------6----6----6/7\6-4-4--2-0--|
|-------------------------------4----4----4-4/5\4-2-2--0-0--|
|-----------------------------------------------------------| 4x

|-----------------------------------------------------------|
|-----------------------------------------------------------|
|-----6-----6-----6p4---6----6------------------------------|
|-/4-----4-----4------0----0----6--6--6--6--6/7\6-4-4--2-0--|
|-------------------------------4--4--4--4--4/5\4-2-2--0-0--|
|-----------------------------------------------------------| 4x


RIFF B - 2x


RIFF D:

|-----------------------------------------------------------|
|-----------------------------------------------------------|
|-----7-----7-----7p5---7----7------------------------------|
|-/5-----5-----5------------------7----7----7/8\7-5-5--8-8\-|
|---------------------6----6----5----5----5-5/6\5-3-3--8-8\-|
|------------------------------------------------------6-6\-| 4x


OUTRO: (fades out)
(Gtr 1)
|-----------------------------------------------------------|
|-----------------------------------------------------------|
|-----7-----7-----7p5---7----7------------------------------|
|-/5-----5-----5----------------7--7--7--7--7/8\7-5-5--8-8\-|
|---------------------6----6----5--5--5--5--5/6\5-3-3--8-8\-|
|------------------------------------------------------6-6\-|

(Gtr 2)
|-----------------------------------------------------------|
|-----------------------------------------------------------|
|-----------------------------------------------------------|
|-/8~-------------10----12------7--7--7--7--7h8p7-5-5--3-3--|
|-----------------------------------------------------------|
|-----------------------------------------------------------|
Tap to rate this tab
 
# A B C D E F G H I J K L M N O P Q R S T U V W X Y Z