Song name
# A B C D E F G H I J K L M N O P Q R S T U V W X Y Z

Crowbar - Empty Room tab

Band:	CROWBAR
Album:	Sonic Excess in its Purest Form
Song:	Empty Room

Transcribed by:	general maxx

Tuning: 3.5 steps down (A)

Keys:
 /or\ - slide
  ___ - palm mute


INTRO:
|--------------------------------------------------------|
|--------------------------------------------------------|
|---------------7---5-------------------14----12\--------|
|-2-2--2-2----5---------2-2--2-2-----12--------------14\-|
|-2-2--2-2--3-----3-----2-2--2-2--10-------10-----12-----|
|-0-0--0-0--------------0-0--0-0-------------------------| 4x


VERSE:
(random feedback & stuff throughout)
|--------------------------------------------------------|
|--------------------------------------------------------|
|--------------------------------------------------------|
|-2------------------------------------------------------|
|-2------------------------------------------------------|
|-0------------------------------------------------------|


PRE-CHORUS:
|----------------|
|----------------|
|----------------|
|----------------|
|-12-12-10-10-10-|
|-10-10--8--8--8-|
  ______________


CHORUS:
|---------------------------------------|
|---------------------------------------|
|---------------------------------------|
|---------------7/9-2----14\12-10/12-10-|
|-9/10\9-9/10\9-7/9-2----12\10--8/10-10-|
|-7/-8\7-7/-8\7-5/7-0--0----------------|

|---------------------------------------|
|---------------------------------------|
|---------------------------------------|
|---------------7/9-2----14\12-10-10-10-|
|-9/10\9-9/10\9-7/9-2----12\10--8-10-10-|
|-7/-8\7-7/-8\7-5/7-0--0----------------| 2x


INTRO - 2x


VERSE


PRE-CHORUS


CHORUS - 4x


OUTRO:
|---------------------------------------------------|
|------------------------------------------------5--|
|-----------------------------------------9---------|
|-4--4-4--4-2-6--6-7-6-4-6-4-2-7--7-----7------6----|
|-4--4-4--4-2-6--6-7-6-4-6-4-2-5--5---5------4------|
|-2--2-2--2-0-4--4-5-4-2-4-2-0----------------------|

|---------------------------------------------------|
|------------------------------------------------5--|
|-----------------------------------------9---------|
|-4--4-4--4-2-6--6-7-6-4-6-4-2-7--7-----7------6----|
|-4--4-4--4-2-6--6-7-6-4-6-4-2-5--5---5------4------|
|-2--2-2--2-0-4--4-5-4-2-4-2-0----------------------|

|---------------------------------------------------|
|------------------------------------------------5--|
|-----------------------------------------9---------|
|-4--4-4--4-2-6--6-7-6-4-6-4-2-7--7-----7------6----|
|-4--4-4--4-2-6--6-7-6-4-6-4-2-5--5---5------4------|
|-2--2-2--2-0-4--4-5-4-2-4-2-0----------------------|

|---------------------------------------------------|
|------------------------------------------------5--|
|-----------------------------------------9---------|
|-4--4-4--4-2-6--6-7-6-4-6-4-2-7--7-----7------6----|
|-4--4-4--4-2-6--6-7-6-4-6-4-2-5--5---5------4------|
|-2--2-2--2-0-4--4-5-4-2-4-2-0----------------------|
                   ___________

  repeat till fade out
Tap to rate this tab
 
# A B C D E F G H I J K L M N O P Q R S T U V W X Y Z