Song name
# A B C D E F G H I J K L M N O P Q R S T U V W X Y Z

Crowbar - Intro tab

Band:  CROWBAR
Album: Odd Fellows Rest
Song:  Intro

Transcribed by:	general maxx
Tuning:	2.5 steps down

Keys:
 / \ - slide
  h  - hammer on
  b  - bend


fades in

(Gtr 1)
|-------------------------------------------------|
|-------------------------------------------------|
|-------------------------------------------------|
|-/7~----7h8-9b--7h8-7~-5--3--5--3~-2-------------|
|-----------------------------------2----/7~------|
|-----------------------------------0-------------|

(Gtr 2)
|-------------------------------------------------|
|-------------------------------------------------|
|-------------------------------------------------|
|-----------------------------------2-------------|
|-/8~----8h9-10b-8h9-8~-5--3--------2-------------|
|-----------------------------3--1~-0----------/\-|
Tap to rate this tab
# A B C D E F G H I J K L M N O P Q R S T U V W X Y Z