Crowbar - The Cemetery Angel tab

TRANSCRIBED BY: insidethefall (insidethefall@gmail.com)

Band: Crowbar
Title: the Cemetery Angels
Album: Sever the Wicked Hand (2011)

Guitar Tabs

Tuning: B-E-A-D-F#-B

############ FIRST RIFF ############

|-------------------------------------------------------------------------|
|-------------------------------------------------------------------------|
|-------------------------------------------------------------------------|
|-12-12-12--12-12-12--13-12-10-10-13-----12-12-12--13-12-12--10-10-8-8----|
|-12-12-12--12-12-12--13-12-10-10-13-----12-12-12--13-12-12--10-10-8-8----|
|-10-10-10--10-10-10--11-10-8--8--11-----10-10-10--11-10-10--8--8--6-6----|



############ VERSE ############

|--------------------------------------------------------|
|--------------------------------------------------------|
|--------------------------------------------------------|
|-6--8--5--5--3------6--8--------------------------------|
|-6--8--5--5--3------6--8--------------------------------|
|-4--6--3--3--1------4--6--------------------------------|




############ CHORUS ############

|--------------------------------------------------------|
|--------------------------------------------------------|
|--------------------------------------------------------|
|--------------------------------------------------------|
|----5----------8-------5----------8---------------------|
|--5---8--5-5-6---5---5---8--5-5-6---5-------------------|


at the end

|--------------------------------------|
|--------------------------------------|
|--------------------------------------|
|--------------------------------------|
|----5----------8~~~~------------------|
|--5---8--5-5-6------------------------|



############ BREAKDOWN ############

|-------------------------------------------------|
|-------------------------------------------------|
|-------------------------------------------------|
|--12--12--12--12-12--12--------------------------|
|--12--12--12--12-12--12------------------11~~----|
|--10--10--10--10-10--10-10-11-13~~-11-13---------|
Tap to rate this tab
 
# A B C D E F G H I J K L M N O P Q R S T U V W X Y Z