Song name
# A B C D E F G H I J K L M N O P Q R S T U V W X Y Z

Crowbar - And Suffer As One tab

Band:  CROWBAR
Album: Odd Fellows Rest
Song:  ...And Suffer As One

Transcribed by:general maxx

Tuning:	2.5 steps down

Keys:
 ___ - palm mute
 x\\ - pick scrape
 / \ - slide
  p  - pull off
  h  - hammer on


INTRO:

|--------------------------------------------|
|--------------------------------------------|
|----------------x\-x\-x\-x\\----------------|
|-2-2-2-2-2-2----x\-x\-x\-x\\--2-------------|
|-2-2-2-2-2-2------------------2-------------|
|-0-0-0-0-0-0------------------0----------\--|
  ___________


RIFF A:

|------------------------------------------------------------|
|------------------------------------------------------------|
|------------------------------------------------------------|
|-2------2-------------------------------------2-------------|
|-2---2--2-------------------------------------2-------------|
|-0---0--0---0-0-0-000-0-4p3-0-7\--2~--2--3-2~-0----------\--|
      _      ___________     _

 ---------------------------------------------------------|
 ---------------------------------------------------------|
 ---------------------------------------------------------|
 2-2-2-2-2-2-2------2-------------------------------------|
 2-2-2-2-2-2-2---2--2-------------------------------------|
 0-0-0-0-0-0-0---0--0---0-0-0-000-0-4p3-0-7\--2~--2--3-2~-|
 ___________     _      ___________     _

 ----------------------------------|
 ----------------------------------|
 ----------------------------------|
 -2------2-------------------------|
 -2---2--2-------------------------|
 -0---0--0---0-0-0-000-0-4p3-0-7\--|
      _      ___________     _


RIFF B:

|---------------------------------------------|
|---------------------------------------------|
|---------------------------------------------|
|-------3--2----------------------------------|
|-------3--2----/5-5~-----4-4~---/8~-----5-5~-|
|-7--6~-1--0--0-------0h3------0-----0h3------| 4x


RIFF C:

|----------------------|     |------------------------|
|----------------------|     |------------------------|
|----------------------|     |------------------------|
|-------3--2---7-7-7-7-|     |-------3--2-------------|
|-------3--2---5-5-5-5-|     |-------3--2-------------|
|-7--6~-1--0---5-5-5-5-| 3x  |-7--6~-1--0----------\--|
               _______


RIFF A


RIFF B - 4x


RIFF C:

|----------------------|     |------------|
|----------------------|     |------------|
|----------------------|     |------------|
|-------3--2---7-7-7-7-|     |-------3--2-|
|-------3--2---5-5-5-5-|     |-------3--2-|
|-7--6~-1--0---5-5-5-5-| 3x  |-7--6~-1--0-|
               _______


RIFF D:

(Gtr 1)
|--------------------------------|
|--------------------------------|
|--------------------------------|
|--------------------------------|
|-8p6-8--8p6-8\------------------|
|---------------8-7--6--6-7-6-2/-|

(Gtr 2)
|--------------------------------|
|--------------------------------|
|--------------------------------|
|-7p5-7--7p5-7\------------------|
|--------------------------------|
|---------------8-7--6--6-7-6-2/-| 8x

(Gtr 1)
|--------------------------------|
|--------------------------------|
|--------------------------------|
|--------------------------------|
|-7h8-7--7h8-7-------------------|
|---------------7-6--6--6-7-6-1/-|

(Gtr 2)
|--------------------------------|
|--------------------------------|
|--------------------------------|
|-5h7-5--5h7-5-------------------|
|--------------------------------|
|---------------7-6--6--6-7-6-1/-| 3x

(Gtr 1)
|----------------------------------------------------------------------------|
|----------------------------------------------------------------------------|
|----------------------------------------------------------------------------|
|----------------------------3--2-------------2------2-----------------------|
|-7h8-7--7h8-7---------------3--2-------------2---2--2-----------------------|
|--------------7-6--6--6-7-6-1--0----------\--0---0--0---0-0-0-000-0-4p3-0-7-|
                                                   _      ___________     _

(Gtr 2)
|----------------------------------------------------------------------------|
|----------------------------------------------------------------------------|
|----------------------------------------------------------------------------|
|-5h7-5--5h7-5----------------3--2-------------2------2----------------------|
|-----------------------------3--2-------------2---2--2----------------------|
|--------------7-6--6--6-7-6-1--0----------\--0---0--0---0-0-0-000-0-4p3-0-7-|
                                                   _      ___________     _


RIFF B - 4x


OUTRO:

|----------------------|     |----------------------------|
|----------------------|     |----------------------------|
|----------------------|     |----------------------------|
|-------3--2---7-7-7-7-|     |-------3--2-(7p5-7--7p5-7\)-|
|-------3--2---5-5-5-5-|     |-------3--2--8p6-8--8p6-8\--|
|-7--6~-1--0---5-5-5-5-| 8x  |-7--6~-1--0-----------------|
               _______
Tap to rate this tab
# A B C D E F G H I J K L M N O P Q R S T U V W X Y Z