Song name
# A B C D E F G H I J K L M N O P Q R S T U V W X Y Z

Crowbar - I Feel The Burning Sun tab

Crowbar - I Feel The Burning Sun
From: Equilibrium
Standard B Tunning -  B E A D F# B

Tabbed By: Adamade12
Youtube:
http://www.youtube.com/user/adamade12

* = Palm Mute
h = Hammer-on
/ = Slide
B = Bend

Intro
|----------------------------------------------------------|
|----------------------------------------------------------|
|----------------------------------------------------------|
|----------------------------------------------------------|
|---------2-2-2--------------------------------------------|
|----0----0-0-0--5B--0--9B--0h8h7--0h6h7-------------------| x12
          * * *

*******************************************************
Chorus
|-------------------------------|
|-------------------------------|
|-------------------------------|
|------------------------12-----|
|---9B--7---------10------------|
|--------------8----------------|x2

3rd Time Through
|---------------------------------------------|
|---------------------------------------------|
|---------------------------------------------|
|-------------------------------------12------|
|--2-2-2-2------9B--7---------10--------------|
|--0-0-0-0------------------8-----------------|x2
   * * * *
Ending Chorus stem
|------------------|
|------------------|
|------------------|
|------------------|
|--2-2-2-2---------|
|--0-0-0-0---------|
   * * * *
*******************************************************
Intro Riff (Again)
|----------------------------------------------------------|
|----------------------------------------------------------|
|----------------------------------------------------------|
|----------------------------------------------------------|
|---------2-2-2--------------------------------------------|
|---0-----0-0-0--5B--0--9B--0h8h7--0h6h7-------------------| x12
          * * *
*******************************************************
Chorus
|-------------------------------|
|-------------------------------|
|-------------------------------|
|------------------------12-----|
|---9B--7---------10------------|
|--------------8----------------|x2

3rd Time Through
|---------------------------------------------------|
|---------------------------------------------------|
|---------------------------------------------------|
|-------------------------------------12------------|
|--2-2-2-2------9B--7---------10--------------------|
|--0-0-0-0------------------8-----------------------|x2
   * * * *

Ending Chorus stem
|-------------------|
|-------------------|
|-------------------|
|-------------------|
|--2-2-2-2----------|
|--0-0-0-0----------|
   * * * *

*******************************************************
Slow Breakdown
|-----------------------------------------------|
|-----------------------------------------------|
|-----------------------------------------------|
|-----------------------------------------------|
|-----------------------6----------3--2---------|
|--0--0--0--/11----/7-----7--5--3--1--0---------|x8
        *
*******************************************************
Slow Intro-ish Riff
|------------------------------------------------------|
|------------------------------------------------------|
|------------------------------------------------------|
|------------------------------------------------------|
|---------2-2-2------------------8-9-7-8---------------|
|---0----0-0-0--5B--0--9B----7-6-5-6---------| x10-----|
            * * *
*******************************************************
End Riff
|--------------------------------|
|--------------------------------|
|--------------------------------|
|------------------------12------|
|--9B--7---------10--------------|
|-----------8--------------------|x4


Thanks for checking this tab out, Good luck!
Tap to rate this tab
# A B C D E F G H I J K L M N O P Q R S T U V W X Y Z