Song name
# A B C D E F G H I J K L M N O P Q R S T U V W X Y Z

Crowbar - Like Broken Glass tab

Crowbar-Like Broken Glass
from the album Like Broken Glass
Tuning: not sure, I tabbed it in A
By Bryan Meyer


Intro/Verse

E ---------------------------------------------------------
B ---------------------------------------------------------
G -------5-5--------5-5--------5-5------------------------
D -------3-3--------3-3--------3-3-------------------------
A ---------------------------------------------------------
E -0-0-0-----0-0-0-------0-0-0-----7-8-7--1-2-1------------


E ---------------------------------------------------------
B ---------------------------------------------------------
G -------5-5-------5-5-------5-5---------------------------
D -------3-3-------3-3-------3-3---------------------------
A ---------------------------------------------------------
E -0-0-0-----0-0-0-----0-0-0------0-0-0--0-0-0-------------




Chorus

E --------------------------------------------------------
B --------------------------------------------------------
G --------------------------------------------------------
D --------------------------------------------------------
A -2-3-7-6-5--12-11------5-4-------2-3-10-----------------
E -0-1-5-4-3--10--9-0-0--3-2-8-7-6-0-1--8-----------------



Breakdown

E --------------------------------------------------------
B --------------------------------------------------------
G --------------------------------------------------------
D -------2-1-------3--------------------------------------
A ------------------ 2-1-0--------------------------------
E -0-0-0-----0-0-0---------4------------------------------





I think that's pretty much it exept for the outro which is pretty much
identical to the intro. Also, please note that I did not include details
such as timing, slides, etc. But if you listen to the song, you can figure
it out.
Tap to rate this tab
# A B C D E F G H I J K L M N O P Q R S T U V W X Y Z