Song name
# A B C D E F G H I J K L M N O P Q R S T U V W X Y Z

Crowbar - Lasting Dose tab

NTRO

 B|------------------------------------------------------------------------|
F#|------------------------------------------------------------------------|
 D|------------------------------------------------------------------------|
 A|-10-9-----9-10----------------------------------------------------------|
 E|------10-------7-8------------------------------------------------------|
 B|------------------------------------------------------------------------|

VERSE

 B|------------------------------------------------------------------------|
F#|------------------------------------------------------------------------|
 D|------------------------------------------------------------------------|
 A|--------------------------------7-5-10----------------------------------|
 E|-7-7--5-7-10-9-10-9-2-2-3-3-3-5-5-3-8-----------------------------------|
 B|-5-5--3-5-8--7-8--7-0-0-1-1-1-3-----------------------------------------|

BRIDGE

 B|------------------------------------------------------------------------|
F#|------------------------------------------------------------------------|
 D|------------------------------------------------------------------------|
 A|------------------------------------------------------------------------|
 E|---0---5-3-5-------7----------------------------------------------------|
 B|-5---5-------0-3-3------------------------------------------------------|

Listen to the song for the timing and the order in which everything is played
Tap to rate this tab
# A B C D E F G H I J K L M N O P Q R S T U V W X Y Z