Song name
# A B C D E F G H I J K L M N O P Q R S T U V W X Y Z

Crowbar - Let Me Mourn tab

-----------------------------------------------------------------------------
			     LET ME MOURN - CROWBAR
-----------------------------------------------------------------------------
***This is not the OFFICIAL tab, this is how I play it***
Tabbed by: Nathan McBain
Produced by: Kirk Windstein/Housecore Records
 /   slide up
 \   slide down
 .   Palm Mute
 b   Bend
 brb Bend release bend

Guitar 1 (Heavy Distortion)
(0:00-0:45)     (x3)                                     (x3)
C#|-----------------|---------------------|-----------------|
G#|-----------------|---------------------|-----------------|
E |-----------------|---------------------|-----------------|
B |-----------------|--3--3-3\1/5\3-3/5\3-|-----------------|
F#|2----------------|--3--3-3\1/5\3-1/3\1-|2----------------|
B |---4/7--7brb--9--|--3--3-3\1/5\3-------|---4/7--7brb--9--|

                                       (x3)
C#|---------------------|-----------------|---------------------|
G#|---------------------|-----------------|---------------------|
E |---------------------|-----------------|---------------------|
B |--3--3-3\1/5\3-3/5\3-|-----------------|--3--3-3\1/5\3-3/5\3-|
F#|--3--3-3\1/5\3-1/3\1-|2----------------|--3--3-3\1/5\3-1/3\1-|
B |--3--3-3\1/5\3-------|---4/7--7brb--9--|--3--3-3\1/5\3-------|

                (x3)
C#|-----------------|---------------------|
G#|-----------------|---------------------|
E |-----------------|---------------------|
B |-----------------|--3--3-3\1/5\3-3/5\3-|
F#|2----------------|--3--3-3\1/5\3-1/3\1-|
B |---4/7--7brb--9--|--3--3-3\1/5\3-------|

   (0:45-1:10)
C#|-------------------|-------------------|
G#|-------------------|-------------------|
E |-------------------|-------------------|
B |3--5---------------|3--5---------------|
F#|3--5---2-----2-----|3--5---2-----2-----|
B |3--5-----4-3---4-3-|3--5-----4-3---4-3-|
          ............        ............
C#|-------------------|-------------------|
G#|-------------------|-------------------|
E |-------------------|-------------------|
B |3--5---------------|3--5---------------|
F#|3--5---2-----2-----|3--5---2-----2-----|
B |3--5-----4-3---4-3-|3--5-----4-3---4-3-|
          ............        ............

I will try to learn the rest of the song, and post a full tab soon.
Tap to rate this tab
# A B C D E F G H I J K L M N O P Q R S T U V W X Y Z