Song name
# A B C D E F G H I J K L M N O P Q R S T U V W X Y Z

Crowd Lu - Oh Yeah tab

timing follows this video:
http://www.youtube.com/watch?v=bWlgl9wt1JM

tuning: whole step down


intro

|------------------------------|
|------------------------------|
|------------------------------|
|------------------------------|
|------------------------------|
|-14-13-12-11-10-9-8-7-6-5-4-3-|


|-------------------------------|
|-------------------------------|
|-------------------------------|		play 3 times
|-------------------------------|
|------5-5--4-4--------3-3-3--2-|
|-3-3------------5-5---------4--|

|-----------------6----------|
|-----------------5----------|
|-----------------5----------|
|-----------------4----------|
|----------3-4-5--5----------|
|-3-3-6-6---------x----------|


Verse (0:16)

    G	 C#7  Am7  Cm7	     Bm7  Em7  Am7  Am7/D
|---3----4----0----3----|----2----3----0----0----|
|---3----6----1----4----|----3----3----1----1----|
|---4----6----0----3----|----2----4----0----0----|		play 2 times
|---5----6----2----5----|----4----2----2----0----|
|---5----4----0----3----|----2----x----0----x----|
|---3----x----x----x----|----x----x----x----x----|

prechorus (0:33)
    Am7	 G    Bm   A	     Dm	  CM7  Am7  D7sus4
|---5----3----7----5----|----5h7--3----5----3----|
|---5----3----7----5----|----6----5----5----3----|
|---5----4----7----6----|----7----4----5----5----|
|---5----5----9----7----|----7----5----5----5----|
|---x----5----9----7----|----5----3----x----5----|
|---5----3----7----5----|----x----x----5----x----|

chorus (0:47)
    D/G	 C#m75CM7  Cm7 	     Bm7  BbM7 Am   Am7/D
|---2----x----3----3----|----2----1----0----0----|
|---3----5----5----4----|----3----2----1----1----|
|---2----4----4----3----|----2----1----0----0----|		play 2 times
|---x----5----5----5----|----4----3----2----0----|
|---x----4----3----3----|----2----1----0----x----|
|---3----x----x----x----|----x----x----x----x----|

C#7 (2 measures) (1:14)

Verse (1:17)

Verse strumming variation (1:30)
    G	 C#7  Am7  Cm7	     Bm7  Em7  Am7  Am7/D
|---3----4----0----3----|----2----10---0----0----|
|---3----6----1----4----|----3----8----1----1----|
|---4----6----0----3----|----2----7----0----0----|   the second time around
|---5----6----2----5----|----4----9----2----0----|   high Em7
|---5----4----0----3----|----2----7----0----x----|
|---3----x----x----x----|----x----x----x----x----|

prechorus (1:44)

chorus (1:58)
    D/G	 C#m75CM7  Cm7 	     Bm7  BbM7 Am   Am7/D
|---2----x----3----3h5--|----2----1----0----0----|----2----3----5----|
|---3----5----5----4----|----3----2----1----1----|----1----1----3----|
|---2----4----4----3----|----2----1----0----0----|----0----0----0----|
|---x----5----5----5----|----4----3----2----0----|----0----0----0----|
|---x----4----3----3----|----2----1----0----x----|----x----x----x----|
|---3----x----x----x----|----x----x----x----x----|----x----x----x----|

C#7 (2 measures) (2:23)

Verse (2:26)

Chorus (2:39) 

ending (3:05) (hold initial C#7)
		 	  			
|---4----3----x----x----5----2----1----0----0----|----2----3----5----|
|---6----3----7----6----5----3----2----1----1----|----1----1----3----|
|---6----4----7----6----6----2----1----0----0----|----0----0----0----|	
|---6----5----7----6----7----4----3----2----0----|----0----0----0----|
|---4----5----5----4----7----2----1----0----x----|----x----x----x----|
|---x----3----x----x----5----x----x----x----x----|----x----x----x----|


http://en.wikipedia.org/wiki/Crowd_Lu
Tap to rate this tab
# A B C D E F G H I J K L M N O P Q R S T U V W X Y Z