Song name
# A B C D E F G H I J K L M N O P Q R S T U V W X Y Z

Crowded House - Private Universe chords

Highlighted       Show chord diagrams
-------------------------------------------------------------------------------
                             PRIVATE UNIVERSE - Crowded House
-------------------------------------------------------------------------------
Tabbed by: Taylor Shiroff
E-mail: taylorshiroff@me.com

Tuning: Standard

Intro is the same as the verse; just instead of G/A 6, play Am again, then F/A maj7, then C.

Verses:
      Am   F/A maj7 D/A m7 Am            G/A 6 F/A maj7 Am
e|--0--00--1--11----111----00--00-0--00--0--00-000------00-00-------|
B|--1--11--1--11----111----11--11-1--11--0--00-111------11-11-------|
G|--2--22--2--22----222----22--22-2--22--0--00-222------00-00-------|
D|--2--22--2--22----000----22--22-2--22--0--00-333------22-22-------|
A|--0--00--0--00----000----00--00-0--00--0--00-000------33-33-------|
E|------------------------------------------------------------------|

Chorus:
             I will run for shelter, endless summer lift the curse
      F     G            C            Am
e|--111-----3--3--3--3---0--0---0--0--0--0--0---0---00------|
B|--333-----3--3--3--3---1--1---1--1--1--1--1---1---11------|
G|--333-----0--0--0--0---0--0---0--0--2--2--2---0---00------|
D|--222-----0--0--0--0---2--2---2--2--2--2--2---2---22------|
A|--111-----2--2--2--2---3--3---3--3--0--0--0---3---33------|
E|--111-----3--3--3--3--------------------------------------|
      (Play the three F's quickly, then strum lightly a few times before G.)

Just repeat the verses as neccesary, listen to the song for how it goes exactly. For the 
chorus, just repeat it, it's pretty much the same timing.
Tap to rate this tab
# A B C D E F G H I J K L M N O P Q R S T U V W X Y Z