Guitaretab - guitar tabs
Song name
# A B C D E F G H I J K L M N O P Q R S T U V W X Y Z

Crowded House - I Walk Away tab

-------------------------------------------------------------------------------
			     I Walk Away - Crowded House
-------------------------------------------------------------------------------
Tabbed by: John Grunwell
Email: mahajohnathotmaildotcom

Tuning: E A D G B E 

(palm mute throughout the phrase, but accent chords 
by momentarily relaxing the mute)
e|-------------------------------------------------|
B|--3-----3--------------------------------------3-|
G|--2-----0--------------------------------------4-|
D|--0-0--0--0-0--0--0--0--0--0--0--0--0--0--0--4-|
A|-----------------------------------------------2-|
E|-------------------------------------------------|
[ Tab from: http://www.guitaretab.com/c/crowded-house/4521.html ]
(the muted B on the A string should barely register as a pitch, just the 
clicking of a pick against taught metal)
e|------------------------------------------------------------------|
B|----------------------------3--2--------------------------2-----3-|
G|----------------------------4--2--------------------------2--2--2-|
D|----------------------------4--2--------------------------2--2--0-|
A|--- X(2)--X(2)--X(2)--X(2)--2--0--0--0--0--0--0--0--0--0--0--0----|
E|------------------------------------------------------------------|

(the 2nd and 3rd go around [with the vocals] repeat this progression, 
but the final phrase ends like this...) 
e|------------------------------------|
B|----------------------------3(p)-2--|
G|------------------------------------|
D|------------------------------------|
A|----0--0--0--0--0--0--0--0----------|
E|------------------------------------|
Related for I Walk Away tab