Song name
# A B C D E F G H I J K L M N O P Q R S T U V W X Y Z

Crowded House - Weather With You tab

From: marck@nwu.edu (Marck Bailey)
{title:Weather With You}
{subtitle:N. Finn/T. Finn}

# Chord definitions
{define D/F# base-fret 0 frets 2 x 0 2 3 0}

{sot}
Intro solo over Em A (x 4):
----------------------------|---------------|--------------------------|
-5^^^^^^--7-8--5^^^^^^--3-0-|-3-2-----------|-5^^^^^^--3>5-7-8-7-5-3-0-|
----------------------------|-----2-2--4-0--|--------------------------|
----------------------------|---------------|--------------------------|
----------------------------|---------------|--------------------------|
----------------------------|---------------|--------------------------|

-------------------||
-------------------||
-2>4-4--4--4--6-6--||
-------------------||
-------------------||
-------------------||
{eot}

Walking 'round the [Em]room singing
Stormy [A]Weather
at fifty-[Em]seven Mt. Pleasant [A]St.
Now it's the [Em]same room but everything's [A]different
You can fight the [Em]sleep but not the [A]dream
[Dm]Things ain't [Am]cookin' [Dm]in my [Am]kitchen
[Dm]Strange aff[Am]liction wash [F]over me
[Dm]Julius [Am]Caesar [Dm]and the Roman [Am]Empire
[Dm]Couldn't [Am]conquer the [F]blue sky [G]

{sot}
GUITAR (over Em - A)
-------------------------------------------------------------||
-3>5^^^^--3>5^^^^--7--8--7--5--3--0------------------------5-||
--------------------------------------2>4--4--4--4---6--7----||
-------------------------------------------------------------||
-------------------------------------------------------------||
-------------------------------------------------------------||
{eot}

There's a [Em]small boat made of [A]china
Going [Em]nowhere on the mantle[A]piece
Do I [Em]lie like a loungeroom [A]lizard
Or do I [Em]sing like a bird re[A]leased

{soc}
Everywhere you [A]go you always take the [D]weather with you
Everywhere you [A]go you always take the [D]weather
Everywhere you [A]go you always take the [G]weather with you
Everywhere you [D/F#]go you always take the weather,
Take the [G]weather, the [A]weather with you
{eoc}

{sot}
GUITAR (over Em - A)
-------------------3--5-------------------------------|
-3>5^^^^--3>5^^^^-------5^^^^^-12^^^^--10--8--5--3--5-|
------------------------------------------------------|
------------------------------------------------------|
------------------------------------------------------|
------------------------------------------------------|

                               S---
------------------------------------------------------------------||
-5^^^^^--7--8--7---5--3--0--0--3--5-------------------------------||
-------------------------------------2--2>0--2>0-2-2>0-2>0--2-2>4-||
------------------------------------------------------------------||
------------------------------------------------------------------||
------------------------------------------------------------------||
{eot}

Everywhere you [A]go you always take the [D]weather with you
Everywhere you [A]go you always take the [D]weather
Everywhere you [A]go you always take the [G]weather with you
Everywhere you [D/F#]go you always take the [E]weather,
Take the [G]weather, the [A]weather with [D]you
Tap to rate this tab
# A B C D E F G H I J K L M N O P Q R S T U V W X Y Z