Song name
# A B C D E F G H I J K L M N O P Q R S T U V W X Y Z

Crowded House - Wather With You tab

Well here is the song, i think its right...

Weather with you 
Crowded House

e|----0-------0--0------------| 2
b|----5-------7--8------------|
g|----------------------------|
d|----------------------------|
a|----------------------------|
E|----------------------------|

e|----0----0--o---------------|
b|----5----3--2---------------|
g|----------------------------|
d|----------------------------|
a|----------------------------|
E|----------------------------|

Repeat Again

Then play the normal Em to A progression throughout the song during the verses.
Thats all i can remember, hope you enjoy it, Thanx!

Tabbed by Danny O'Neill
Tap to rate this tab
 
# A B C D E F G H I J K L M N O P Q R S T U V W X Y Z