Song name
# A B C D E F G H I J K L M N O P Q R S T U V W X Y Z

Crowded House - Dontt Dream Its Over tab

Highlighted       Show chord diagrams
Crowded House
Don't dream its over



                      Don't dream it's over
                              By
                       Crowded House

  Asus    Gsus    F#sus
e:--5---|---3---|---2---|
B:--5---|---3---|---2---|
G:--7---|---5---|---4---|
D:--7---|---5---|---4---|
A:--5---|---3---|---2---|
E:--5---|---3---|---2---|


The intro is strumed Asus Asus Asus Gsus


Asus
There is freedom within
F#sus
There is freedom without
G                                   F#m
Try and catch the deluge in a paper cup.
Asus
Theres a battle ahead
F#sus
many battles are lost
G

but you never see the end of the road when your
F#m
 traveling with me.
                           Chorus

G       A             D         Bm
Hey now Hey now don't dream its over
G       A                D           Bm
Hey now Hey now when the world comes in
G         A
They come They come
D                     Bm
to build a wall between us
G              A7
They won't win

NOW I'm towing my car
Theres a hole in the roof
My possessions are causing me suspicion but theres no proof.

In the paper today
Tales of war and of waste
but you turn right over to the TV page

chorus

Break:

e:-------------------------|---------------------------------|
B:-------------------------|---------------------------------|
G:-------2--0--------------|--------2--0---------------------|
D:----0--------0--2--2--2--|-----0--------0--2--2h4p2p0------|
A:0h2-------------3--3--3--|0h2--------------3------------2--|
E:----------------2--2--2--|-----------------2---------------|


                               C
e:--------------------------|-----|
B:--------------------------|--1--|
G:--------2--0--------------|-----|
D:-----0--------0--2--2--2--|--2--|
A:0h2--------------3--3--3--|--3--|
E:-----------------2--2--2--|-----|

(final verse)

Now I'm walking again
to the beat of a drum
and I'm counting the steps to the door of your heart

Only shadows ahead
The'll be clear in the roof
get to know the feeling of liberation and release

chorus and end.

Note the end repeats GADBm
Tap to rate this tab
# A B C D E F G H I J K L M N O P Q R S T U V W X Y Z