Song name
# A B C D E F G H I J K L M N O P Q R S T U V W X Y Z

Crown The Empire - Twos Too Many tab

-------------------------------------------------------------------------------
                             Two's Too Many - Crown the Empire
-------------------------------------------------------------------------------
Tabbed by: Adam Guion
E-mail: AdamGuion@gmail.com

Alrighty, another great song off of Crown the Empire's kinda new album The Fallout.
It's pretty catchy and has a great chorus to sing along to, once again I'm not certain
about some parts of the tab, especially the lead during the chorus. Better than no tab 
at all I suppose. 
Cheers!

Tuning: Drop B
Guitar One
C#|---------------------------------------------------------------------------|
G#|---------------------------------------------------------------------------|
E |---------------------------------------------------------------------------|
B |---------------------------------------------------------------------------| X2
F#|-----------------------------------------------------------------00-00-0~~-|
B |-1/12-0--1515-14-15-14-12-11-0-00-11-12-14-8-0-1010-8-10-8-5-7-0-00-00-0~~-|

Guitar Two
C#|---------------------------------------------------------------------------|
G#|---------------------------------------------------------------------------|
E |-14t--12t--15t--12t--14t--12t--10t--9t-------------------------------------|
B |---------------------------------------------------------------------------| X2
F#|---------------------------------------------------------------------------|
B |---------------------------------------------------------------------------|

Guitar Three
C#|-13--12--15--12--13--12--10--9---------------------------------------------|
G#|---------------------------------------------------------------------------|
E |---------------------------------------------------------------------------|
B |---------------------------------------------------------------------------|
F#|---------------------------------------------------------------------------|
B |---------------------------------------------------------------------------|



Guitar One
Each chord is strummed 8 times, seems pretty obvious on how it should be played
C#|---------------------------------------------------------------------------|
G#|-10--11--8--10--6--8--5--6-------------------------------------------------|
E |-7---7---7--7---7--7--7--7-------------------------------------------------|
B |---------------------------------------------------------------------------| X2
F#|---------------------------------------------------------------------------|
B |---------------------------------------------------------------------------|

Guitar Two
The second time that Guitar One starts over Guitar Two plays this...
C#|---------------------------------------------------------------------------|
G#|---------------------------------------------------------------------------|
E |---------------------------------------------------------------------------|
B |---------------------------------------------------------------------------|
F#|-000-000-0--000-000-0-000-0-0-0--000-000-0--000-000-0--0-0-0-0-0-0---------|
B |-000-000-0--000-000-0-000-0-0-0--000-000-0--000-000-0--0-0-0-0-0-0---------|

 I REPLACED THE 11s WITH * SO THEY WOULD FIT BETTER.
C#|---------------------------------------------------------------------------|
G#|---------------------------------------------------------------------------|
E |---------------------------------------------------------------------------|
B |---------------------------------------------------------------------------|
F#|-555-555-5--555-555-5-555-5-5-5---***-***-*--***-***-*--*-*-*-*-*-*--------|
B |-555-555-5--555-555-5-555-5-5-5---***-***-*--***-***-*--*-*-*-*-*-*--------|

Pre-chorus
Guitar One
C#|---------------------------------------------------------------------------|
G#|-10-10--10---8-8--8----6-6--6----5-5--5------------------------------------|
E |--7--7--7----7-7--7----7-7--7----7-7--7------------------------------------|
B |---------------------------------------------------------------------------| X2
F#|---------------------------------------------------------------------------|
B |---------------------------------------------------------------------------|

Chorus
Guitar One. Strum each chord eight times. During the second playthrough palm mute the 5s
C#|--------------------------------------------------------------------------------|
G#|--------------------------------------------------------------------------------|
E |--------------------------------------------------------------------------------|
B |-0----7----8----5---------------------------------------------------------------| X2
F#|-0----7----8----5---------------------------------------------------------------|
B |-0----7----8----5---------------------------------------------------------------|

Guitar Two is too quiet for me to hear. If you have any idea what the notes could be
please comment below so I can fix the tab.
C#|---------------------------------------------------------------------------|
G#|---------------------------------------------------------------------------|
E |---------------------------------------------------------------------------|
B |---------------------------------------------------------------------------|
F#|---------------------------------------------------------------------------|
B |---------------------------------------------------------------------------|

Intro again, both guitars this time.
C#|---------------------------------------------------------------------------|
G#|---------------------------------------------------------------------------|
E |---------------------------------------------------------------------------|
B |---------------------------------------------------------------------------|
F#|-----------------------------------------------------------------00-00-0~~-|
B |-1/12-0--1515-14-15-14-12-11-0-00-11-12-14-8-0-1010-8-10-8-5-7-0-00-00-0~~-|

This breakdown/verse thingy plays again with both guitars chugging.
C#|---------------------------------------------------------------------------|
G#|---------------------------------------------------------------------------|
E |---------------------------------------------------------------------------|
B |---------------------------------------------------------------------------|
F#|-000-000-0--000-000-0-000-0-0-0--000-000-0--000-000-0--0-0-0-0-0-0---------|
B |-000-000-0--000-000-0-000-0-0-0--000-000-0--000-000-0--0-0-0-0-0-0---------|

 I REPLACED THE 11s WITH * again.
C#|---------------------------------------------------------------------------|
G#|---------------------------------------------------------------------------|
E |---------------------------------------------------------------------------|
B |---------------------------------------------------------------------------|
F#|-555-555-5--555-555-5-555-5-5-5---***-***-*--***-***-*--*-*-*-*-*-*--------|
B |-555-555-5--555-555-5-555-5-5-5---***-***-*--***-***-*--*-*-*-*-*-*--------|

New section:
Guitar One
C#|-13--12--15--12--13--12--10--9---------------------------------------------|
G#|---------------------------------------------------------------------------|
E |---------------------------------------------------------------------------|
B |---------------------------------------------------------------------------| X2
F#|---------------------------------------------------------------------------|
B |---------------------------------------------------------------------------|

Guitar Two
C#|---------------------------------------------------------------------------|
G#|---------------------------------------------------------------------------|
E |---------------------------------------------------------------------------|
B |-0------12-------11--------------------------------------------------------|
F#|-0-X16--12-X16---11-X32----------------------------------------------------|
B |-0------12-------11--------------------------------------------------------|

Pre Chorus
C#|---------------------------------------------------------------------------|
G#|--10-10----10------8--8-----8----------------------------------------------|
E |--7--7-----7-------7--7-----7----------------------------------------------|
B |---------------------------------------------------------------------------|
F#|---------------------------------------------------------------------------|
B |---------------------------------------------------------------------------|

Chorus
C#|--------------------------------------------------------------------------------|
G#|--------------------------------------------------------------------------------|
E |--------------------------------------------------------------------------------|
B |-0----7----8----5---------------------------------------------------------------| X4
F#|-0----7----8----5---------------------------------------------------------------|
B |-0----7----8----5---------------------------------------------------------------|

I guess this would count as the breakdown part.
Guitar One
C#|---------------------------------------------------------------------------|
G#|---------------------------------------------------------------------------|
E |---------------------------------------------------------------------------|
B |---------------------------------------------------------------------------|
F#|------------------------------------------8-4~~~---------------------------|
B |-12-0-12-0-12-0~~~-12-0-12-0-12-0~~~~-5555---------------------------------|

C#|---------------------------------------------------------------------------|
G#|---------------------------------------------------------------------------|
E |---------------------------------------------------------------------------|
B |----------------------------------10---10-12---------------------------------|
F#|-------------------------55577788---555-------------------------------------|
B |-12-0-12-0-12-0~~~-12-0----------------------------------------------------

Guitar Two
C#|---------------------------------------------------------------------------|
G#|---------------------------------------------------------------------------|
E |---------------------------------------------------------------------------|
B |---------------------------------------------------------------------------|
F#|------------------------------------------8-4~~~---------------------------|
B |-12-0-12-0-12-0~~~-12-0-12-0-12-0~~~~-5555---------------------------------|
    
C#|---------------------------------------------------------------------------|
G#|---------------------------------------------------------------------------|
E |---------------------------------------------------------------------------|
B |----------------------------------------8----10-12-------------------------|
F#|-------------------------888101010121212--888------------------------------|
B |-12-0-12-0-12-0~~~-12-0----------------------------------------------------

IDK if it's actually harmonized but it sounds right to me.^^^

Guitar One
C#|---------------------------------------------------------------------------|
G#|-10--11--8--10--6--8--5--6-------------------------------------------------|
E |-7---7---7--7---7--7--7--7-------------------------------------------------|
B |---------------------------------------------------------------------------| X2
F#|---------------------------------------------------------------------------|
B |---------------------------------------------------------------------------|

Guitar One plays it's chords once then, Guitar Two jumps in.
Guitar Two
C#|---------------------------------------------------------------------------|
G#|---------------------------------------------------------------------------|
E |---------------------------------------------------------------------------|
B |---------------------------------------------------------------------------| X2
F#|-000-000-0--000-000-0-000-0-0-0--000-000-0--000-000-0--0-0-0-0-0-0---------|
B |-000-000-0--000-000-0-000-0-0-0--000-000-0--000-000-0--0-0-0-0-0-0---------|

End by strumming a power chord on the twelth fret and just slide down the neck.




************************************

| /   slide up
| \   slide down
| h   hammer-on
| p   pull-off
| ~   vibrato
| +   harmonic
| x   Mute note
| b   Bend
| pb  Pre-bend
| br  Bend release
| pbr Pre-bend release
| brb Bend release bend

************************************
Tap to rate this tab
# A B C D E F G H I J K L M N O P Q R S T U V W X Y Z