Song name
# A B C D E F G H I J K L M N O P Q R S T U V W X Y Z

Crown The Empire - Johnny Ringo tab

-------------------------------------------------------------------------------
                             Johnny Ringo - Crown The Empire
-------------------------------------------------------------------------------
Tabbed by:downfallmyballs
E-mail:shockwav3s@yahoo.com
note: This is my first tab so please email me if you have any suggestions please enjoy!
Tuning:Drop Db(C#)

eb|-------------------------------------------------------------------------|
Bb|-------------------------------------------------------------------------|
Gb|-------------------------------------------------------------------------|
Db|---------------------3-3-3-3-2-2-----------------------------------------|(x2)
Ab|0-0-0-0-0--0-0-0-0-0-1-1-1-1-0-0-3-3-5-5-5-5-5--5-5-5-5-5-7-7-7-7-2-2-2-2|
Db|0-0-0-0-0--0-0-0-0-0-------------3-3-5-5-5-5-5--5-5-5-5-5-7-7-7-7-2-2-2-2|

eb|--5--5|
Bb|-6--5-|
Gb|7--6--|
Db|------|
Ab|------|
Db|------|

eb|-----------------------------------------------|
Bb|-----------------------------------------------|
Gb|-----------------------------------------------|
Db|-----------------------------------------------|(x2)
Ab|0-0-0-0-0-0-0-0-0-0-0-0-8-8-8-8-8-8-5-5-5-5-5-5|
Db|0-0-0-0-0-0-0-0-0-0-0-0-8-8-8-8-8-8-5-5-5-5-5-5|

eb|--------------------------------------------------------------|
Bb|--------------------------------------------------------------|
Gb|--------------------------------------------------------------|
Db|---------------------3-3-3-3-2-2------------------------------|
Ab|0-0-0-0-0--0-0-0-0-0-1-1-1-1-0-0-3-3-5-5-5-5-5-7-7-7-7-2-2-2-2|
Db|0-0-0-0-0--0-0-0-0-0-------------3-3-5-5-5-5-5-7-7-7-7-2-2-2-2|

eb|-------------------------------------------------------------------|
Bb|-------------------------------------------------------------------|
Gb|-------------------------------------------------------------------|
Db|------------------6666666666666666666-------------------66666666666|
Ab|0000000000000000004444444444444444444-88888888888888888844444444444|
Db|000000000000000000--------------------888888888888888888-----------|


eb|--5--5|
Bb|-6--5-|
Gb|7--6--|
Db|------|
Ab|------|
Db|------|

eb|-----------------------------------------------|
Bb|-----------------------------------------------|
Gb|-----------------------------------------------|
Db|-----------------------------------------------|(x2)
Ab|0-0-0-0-0-0-0-0-0-0-0-0-8-8-8-8-8-8-5-5-5-5-5-5|
Db|0-0-0-0-0-0-0-0-0-0-0-0-8-8-8-8-8-8-5-5-5-5-5-5|

eb|-----------------------------------------------|
Bb|-----------------------------------------------|
Gb|-----------------------------------------------|
Db|-----------------------------------------------|
Ab|8-8-8-8-8-8-5-5-5-5-5-5-0-0-0-0-0-0-3-3-3-3-3-3|
Db|8-8-8-8-8-8-5-5-5-5-5-5-0-0-0-0-0-0-3-3-3-3-3-3|

eb|-------------------------------------------------|
Bb|-------------------------------------------------|
Gb|-------------------------------------------------|
Db|-------------------------------------------------|
Ab|8-8-8-8-8-8-5-5-5-5-5-5-0-0-0-0-0-0-8-8-8-5-5-5-0|
Db|8-8-8-8-8-8-5-5-5-5-5-5-0-0-0-0-0-0-8-8-8-5-5-5-0|

eb|-------------------------|
Bb|-------------------------|
Gb|-------------------------|
Db|-------------------------|(x8)
Ab|-------------------------|
Db|0000-0-0-0-0-0-0000-00000|
   **** *   * * * ****  * *
eb|---------------------------------------------5|
Bb|----------------------------------------------|
Gb|-------------------------------------------7--|
Db|--7-7---7-7---7-7---7-7---10-10---10-10--7----|
Ab|5-5-5-5-5-5-5-5-5-5-5-5-8-8--8--8-8--8---4----|
Db|----------------------------------------------|

eb|---------------------------------------------------------|
Bb|---------------------------------------------------------|
Gb|---------------------------------------------------------|
Db|-------------------------------------------66666666666666|(x4)
Ab|00000000000000000000000000-888888888888888-44444444444444|
Db|00000000000000000000000000-888888888888888---------------|

eb|------------------------------------------------------------------------|
Bb|------------------------------------------------------------------------|
Gb|------------------------------------------------------------------------|
Db|-------------------3-3-3-3-2-2-2-2--------------------------------------|
Ab|0-0-0-0----0-0-0-0-1-1-1-1-0-0-0-0-3--5-5-5-5--5-5-5-5-7-7-7-7-2-2-2-2-2|
Db|0-0-0-0----0-0-0-0-----------------3--5-5-5-5--5-5-5-5-7-7-7-7-2-2-2-2-2|

eb|--------------------------------------------------------------------------|
Bb|--------------------------------------------------------------------------|
Gb|--------------------------------------------------------------------------|
Db|-------------------3-3-3-3-2-2-2-2----------------------------------------|
Ab|0-0-0-0----0-0-0-0-1-1-1-1-0-0-0-0-3--5-5-5-5--5-5-5-5-7-7-7-7-2-2-2------|
Db|0-0-0-0----0-0-0-0-----------------3--5-5-5-5--5-5-5-5-7-7-7-7-2-2-2------|

************************************
| *   palm mute
| /   slide up
| \   slide down
| h   hammer-on
| p   pull-off
| ~   vibrato
| +   harmonic
| x   Mute note
| b   Bend
| pb  Pre-bend
| br  Bend release
| pbr Pre-bend release
| brb Bend release bend

************************************
Tap to rate this tab
# A B C D E F G H I J K L M N O P Q R S T U V W X Y Z