Song name
# A B C D E F G H I J K L M N O P Q R S T U V W X Y Z

Crown The Empire - Memories Of A Broken Heart tab

-------------------------------------------------------------------------------
                             Memories of a Broken Heart - Crown the Empire
-------------------------------------------------------------------------------
Tabbed by: Adam Guion
E-mail: AdamGuion@Gmail.com

Another great song by CTE, pretty easy to tab out however. The hardest part was
the breakdown strangely enough. Anyways, if you wanna take a wack at the lead for
the chorus go ahead. I can hear it but I just don't want to take the time and find
the pattern and individual notes. Cheers!

Tuning: Drop C

0:06 -0:20
D|---------------------------------------------------------------------------|
A|---------------------------------------------------------------------------|
F|---------------------------------------------------------------------------|
C|---------------------------------------------------------------------------|
G|-0000-00-0--000088-88-888-88885555-5555-5-5-5--7-7-7-7-7-7-7-3333----------| X2
C|-0000-00-0--000088-88-888-88885555-5555-5-5-5--7-7-7-7-7-7-7-3333----------|
   .... .. .  ...... .. ... ........ .... . . .  . . . . . . . ....
0:54 -0:57  
D|---------------------------------------------------------------------------|
A|---------------------------------------------------------------------------|
F|---------------------------------------------------------------------------|
C|---------------------------------------------------------------------------|
G|-8-------------------------------------------------------------------------|
C|-8-x13---------------------------------------------------------------------|

0:58 -1:24
Chorus, sorry I was too pick out the lead's parts. Basic eight notes.
D|---------------------------------------------------------------------------|
A|---------------------------------------------------------------------------|
F|---------------------------------------------------------------------------|
C|---------------------------------------------------------------------------|
G|-0--3--5--8----------------------------------------------------------------| X2
C|-0--3--5--8----------------------------------------------------------------|

1:25 -1:39
D|---------------------------------------------------------------------------|
A|---------------------------------------------------------------------------|
F|---------------------------------------------------------------------------|
C|---------------------------------------------------------------------------|
G|-0000-00-0--000088-88-888-88885555-5555-5-5-5--7-7-7-7-7-7-7-3333----------| X2
C|-0000-00-0--000088-88-888-88885555-5555-5-5-5--7-7-7-7-7-7-7-3333----------|
   .... .. .  ...... .. ... ........ .... . . .  . . . . . . . ....
1:53- 2:06
D|---------------------------------------------------------------------------|
A|---------------------------------------------------------------------------|
F|---------------------------------------------------------------------------|
C|---------------------------------------------------------------------------|
G|---------------------------------------------------------------------------|
C|8t----7t----3t---0t------2t------3t-------8t----7t-----3t--------5t---0t---|

2:07- 2:20
Guitar One  Plays this twice
D|---------------------------------------------------------------------------|
A|---------------------------------------------------------------------------|
F|---------------------------------------------------------------------------|
C|---------------------------------------------------------------------------|
G|-0-000-000----------000-000--------first ending----------------------------|
C|-0-000-000-001000---000-000-01b00-8888888877775555-------------------------|
   . ... ...          ... ...
Guitar Two Same as Guitar One the first time, the second time it tremelos these
D|---------------------------------------------------------------------------|
A|---------------------------------------------------------------------------|
F|-14---17--12---------------------------------------------------------------|
C|--x----x---x---------------------------------------------------------------|
G|-12---15--10---------------------------------------------------------------|
C|---------------------------------------------------------------------------|

2:20- 2:48
D|---------------------------------------------------------------------------|
A|---------------------------------------------------------------------------|
F|---------------------------------------------------------------------------|
C|---------------------------------------------------------------------------|
G|-0--3--5--8----------------------------------------------------------------| X2
C|-0--3--5--8----------------------------------------------------------------|

2:48- 3:01
D|---------------------------------------------------------------------------|
A|---------------------------------------------------------------------------|
F|---------------------------------------------------------------------------|
C|---------------------------------------------------------------------------|
G|---------0---------------------------0-------------------------------------|
C|-0-1-3-0---3-0-1-1-1-1-1-1---0-1-3-0---3-0-1-1-1/12------------------------|
   . . . . . . . . . . . . .   . . . . . . . . . 
D|---------------------------------------------------------------------------|
A|---------------------------------------------------------------------------|
F|---------------------------------------------------------------------------|
C|---------------------------------------------------------------------------|
G|---------0---------------------------0-------------------------------------|
C|-0-1-3-0---3-0-1-1-1-1-1-1---0-1-3-0---3-0-1-------------------------------|
   . . . . . . . . . . . . .   . . . . . . . .
You could also play it this way if you don't want to hit the 0 on the G string.
D|---------------------------------------------------------------------------|
A|---------------------------------------------------------------------------|
F|---------------------------------------------------------------------------|
C|---------------------------------------------------------------------------|
G|---------------------------------------------------------------------------|
C|-0-1-3-0-7-3-0-1-1-1-1-1-1---0-1-3-0-7-3-0-1-------------------------------|
   . . . . . . . . . . . . .   . . . . . . . .
3:02- 3:29
D|---------------------------------------------------------------------------|
A|---------------------------------------------------------------------------|
F|---------------------------------------------------------------------------|
C|---------------------------------------------------------------------------|
G|0-1-3-0-7-3-0-1~1~1~1~1~1-------0-1-3-0-7-3-0-1-1-1-111--------------------|
C|0-1-3-0-7-3-0-1~1~1~1~1~1-------0-1-3-0-7-3-0-1-1-1-111--------------------|
                                                      ...
D|---------------------------------------------------------------------------|
A|---------------------------------------------------------------------------| 
F|---------------------------------------------------------------------------|
C|---------------------------------------------------------------------------|
G|0-1-3-0-7-3-0-1~1~1~1~1~1-------0-1-3-0-7-3-0-1-1-1-1-1-1------------------|
C|0-1-3-0-7-3-0-1~1~1~1~1~1-------0-1-3-0-7-3-0-1-1-1-1-1-1------------------|

Play that breakdown twice but instead of the fourth bar the second time play this
D|---------------------------------------------------------------------------|
A|---------------------------------------------------------------------------|
F|---------------------------------------------------------------------------|
C|---------------------11----------------------------------------------------|
G|-8--------10---------12----------------------------------------------------|
C|-8-x8-----10-x4------11-x4-------------------------------------------------|

Final Chorus 3:32 -3:55
Repeat Intro 3:55 - End
Then repeat the chorus which starts on the 33 and the intro and then you're done!

************************************

| /   slide up
| \   slide down
| h   hammer-on
| p   pull-off
| ~   vibrato
| +   harmonic
| x   Mute note
| b   Bend
| pb  Pre-bend
| br  Bend release
| pbr Pre-bend release
| brb Bend release bend

************************************
Tap to rate this tab
# A B C D E F G H I J K L M N O P Q R S T U V W X Y Z