Song name
# A B C D E F G H I J K L M N O P Q R S T U V W X Y Z

Crown The Empire - Makeshift Chemistry tab

Artist: Crown The Empire
Song: Makeshift Chemistry
Album: The Fallout

Tuning: Drop C
C G C F A D


Intro 0:00-0:04
|-----------------------------------------------|
|-----------------------------------------------|
|-----------------------------------------------|
|-----------------------------------------------|
|-----------------------------------------------|
|-0000-12p0-0000--555555--8888-3333-------------|

Second guitar comes in playing same riff 0:04-0:06
|-----------------------------------------------|
|-----------------------------------------------|
|-----------------------------------------------|
|-----------------------------------------------|
|-----------44444444----------------------------|
|-0000-12p0-------------------------------------|

Verse 0:07-0:23
|---------------------------------------------------------------------------------|
|---------------------------------------------------------------------------------|
|---------------------------------------------------------------------------------|
|---------------------------------------------------------------------------------|
|----------------------------------------------------4444-4444--------------------|
|-0000-12p0-0000--555555--8888-3333-0000-12p0-0000-------------8888-5555----------|

|---------------------------------------------------------------------------------|
|---------------------------------------------------------------------------------|
|---------------------------------------------------------------------------------|
|---------------------------------------------------------------------------------|
|---------------------------------------------------------------------------------|
|-0000-12p0-0000--555555--8888-3333-----------------------------------------------|

|---------------------------------------------------------------------------------|
|---------------------------------------------------------------------------------|
|---------------------------------------------------------------------------------|
|---------------------------------------------------------------------------------|
|---------------------------------------------------------------------------------|
|-0000-12p0-0000--8(X4)-10(X4)-12(X4)-10(X4)-12(X4)-14(X4)------------------------|

Pre-chorus 0:24-0:39
|-----------------------------------------------------|
|------11~-------------------------11~----------------|
|--------10~-------------------------10~--------------|
|-8~~~~----8~---0~~~~--3~~~~--8~~~~----8~-------------|
|-8~~~~---------0~~~~--3~~~~--8~~~~-------------------|
|-8~~~~---------0~~~~--3~~~~--8~~~~-------77777777~~~~|
                                          ........

Chorus 0:40-0:55
|----------------------------------------------------------------|
|----------------------------------------------------------------|
|----------------------------------------------------------------|
|-0------7------8-----5------0------7------8------5------11------|
|-0-(X8)-7-(X8)-8(X8)-5-(X8)-0-(X8)-7-(X8)-8-(X8)-5-(X4)-11-(X4)-|
|-0------7------8-----5------0------7------8------5------11------|

Bridge back to verse, left vs. right guitar 0:56-0:57
|----------|
|----------|
|----------|
|----------|
|----------|
|-000--000-|

Verse 0:58-1:05
|---------------------------------------------------------------------------------|
|---------------------------------------------------------------------------------|
|---------------------------------------------------------------------------------|
|---------------------------------------------------------------------------------|
|----------------------------------------------------4444-4444--------------------|
|-0000-12p0-0000--555555--8888-3333-0000-12p0-0000-------------8888-5555----------|

Bridge to break down 1:06-1:13
|-0~~~~~~~~~~
|-0~~~~~~~~~~
|-0~~~~~~~~~~
|-0~~~~~~~~~~
|-0~~~~~~~~~~
|-0~~~SLIDE~~

Breakdown 1:14-1:29
|------------------------------------------------|
|------------------------------------------------|
|------------------------------------------------|
|------------------------------------------------|
|-000000-0-0-000000-0-0-4444444-4-4-444444-4-4---|
|-000000-0-0-000000-0-0-7777777-7-7-777777-7-7---|

Breakdown continued
|--------------------------------------------------|
|--------------------------------------------------|
|--------------------------------------------------|
|--------------------------------------------------|
|-888888-8-8-888888-8-8-11-----11-11-11-----11-11--|
|-888888-8-8-888888-8-8-11(X6)-11-11-11(X6)-11-11--|



Pre-chorus 1:30-1:46
|-----------------------------------------------------|
|------11~-------------------------11~----------------|
|--------10~-------------------------10~--------------|
|-8~~~~----8~---0~~~~--3~~~~--8~~~~----8~-------------|
|-8~~~~---------0~~~~--3~~~~--8~~~~-------------------|
|-8~~~~---------0~~~~--3~~~~--8~~~~-------77777777~~~~|
                                          ........

Chorus 1:47-2:17
|----------------------------------------------------------------|
|----------------------------------------------------------------|
|----------------------------------------------------------------|
|-0------7------8-----5------0------7------8------5------11------|
|-0-(X8)-7-(X8)-8(X8)-5-(X8)-0-(X8)-7-(X8)-8-(X8)-5-(X4)-11-(X4)-|
|-0------7------8-----5------0------7------8------5------11------|

Open strings (Im not totally sure on all of these chords) 2:18-2:33
|-0~~~~0~~~~0~~~~0~~~~-----------|
|-0~~~~0~~~~10~~~9~~~~-----------|
|-0~~~~0~~~~7~~~~6~~~~-----6~~~~-|
|-0~~~~0~~~~8~~~~7~~~~8~~~~7~~~~
|-0~~~~0~~~~----------8~~~~7~~~~-|
|-0~~~~0~~~~----------8~~~~------|

Build up to break down 2:35-2:42
|----------------------------------|
|----------------------------------|
|----------------------------------|
|----------------------------------|
|-000000-000000-000000000000000000-|
|-000000-000000-000000000000000000-|
  ...... ...... ..................

Ha, ha, ha, I dont give a F... 2:41-2:43

Breakdown 2:44-3:15                                    3:16-3:19
|----------------------------------------------------| |-------------------------|
|----------------------------------------------------| |-------------------------|
|----------------------------------------------------| |-------------------------|
|----------------------------------------------------| |-888877758888777511------|
|-0000------0000-8-7-0000------8888/0--8\111111-8-7*-| |-888877758888777511-(x8)-|
|-0000-12/0-0000--0--0000-12/0-8888/0--8\111111--0---| |-888877758888777511------|





3:20-3:35
Operator is there anybody at all that can I explain why I gave everything and more up 
for her?
I know I sound so gullible but something bout her just drew me in...
But that b*** dont even notice me

Chorus/Outro 3:36-4:09
|----------------------------------------------------------------|
|----------------------------------------------------------------|
|----------------------------------------------------------------|
|-0------7------8-----5------0------7------8------5------11------|
|-0-(X8)-7-(X8)-8(X8)-5-(X8)-0-(X8)-7-(X8)-8-(X8)-5-(X4)-11-(X4)-|
|-0------7------8-----5------0------7------8------5------11------|




|* Pinch Harmonic
|. Palm Mute
|P Pulloff
|~ Let it ring

This is my first tab! Hope you enjoy, please comment and let me know if you have any 
corrections! \m/
Tap to rate this tab
 
# A B C D E F G H I J K L M N O P Q R S T U V W X Y Z