Song name
# A B C D E F G H I J K L M N O P Q R S T U V W X Y Z

Crown The Empire - Makeshift Chemistry tab

This is basically the guitar pro tab but just tabbed out for those that dont have 
guitar or tab pro

This is a long one BTW


                        Makeshift chemistry - Crown The Empire 

Tuning:Drop C
CGCFAD 


D |----------------------------------------------------|
A |----------------------------------------------------|
F |----------------------------------------------------|
C |----------------------------------------------------|
G |----------------------------------------------------|
C |--0--0--0--0-----0--0--0--12-0--0--0-----0--0--0----|


----------------------------------------------------|
----------------------------------------------------|
----------------------------------------------------|
----------------------------------------------------|
----------------------------------------------------|
--5--5--5--5-----5--5--5--8--8--8--8--3--3--3--3----|


----------------------------------------------------|
----------------------------------------------------|
----------------------------------------------------|
----------------------------------------------------|
----------------------------------------------------|
--0--0--0--0-----0--0--0--12-0--0--0-----0--0--0----|


----------------------------------------------------|
----------------------------------------------------|
----------------------------------------------------|
----------------------------------------------------|
----------------------------------------------------|
--11-11-11-11-11-11-11-11-11------------------------|


----------------------------------------------------|
----------------------------------------------------|
----------------------------------------------------|
----------------------------------------------------|
----------------------------------------------------|
--0--0--0--0-----0--0--0--12-0--0--0-----0--0--0----|


----------------------------------------------------|
----------------------------------------------------|
----------------------------------------------------|
----------------------------------------------------|
----------------------------------------------------|
--5--5--5--5-----5--5--5--8--8--8--8--3--3--3--3----|


----------------------------------------------------|
----------------------------------------------------|
----------------------------------------------------|
----------------------------------------------------|
----------------------------------------------------|
--0--0--0--0-----0--0--0--12-0--0--0-----0--0--0----|


----------------------------------------------------|
----------------------------------------------------|
----------------------------------------------------|
----------------------------------------------------|
----------------------------------------------------|
--11-11-11-11-11-11-11-11-8--8--8--8--5--5--5--5----|


----------------------------------------------------|
----------------------------------------------------|
----------------------------------------------------|
----------------------------------------------------|
----------------------------------------------------|
--0--0--0--0-----0--0--0--12-0--0--0-----0--0--0----|


----------------------------------------------------|
----------------------------------------------------|
----------------------------------------------------|
----------------------------------------------------|
----------------------------------------------------|
--5--5--5--5-----5--5--5--8--8--8--8--3--3--3--3----|


----------------------------------------------------|
----------------------------------------------------|
----------------------------------------------------|
----------------------------------------------------|
----------------------------------------------------|
--0--0--0--0-----0--0--0--12-0--0--0-----0--0--0----|


----------------------------------------------------|-------|-------|-------|
----------------------------------------------------|-------|-------|-------|
----------------------------------------------------|-------|-------|-------|
----------------------------------------------------|--8L---|--8----|--0----|
----------------------------------------------------|--8L---|--8----|--0----|
--8--8--8--10-10-10-12-12-10-10-10-12-12-12-14-14---|--8L---|--8----|--0----|


-------|-------|-------|----------------------------------------------------|
-------|-------|-------|----------------------------------------------------|
-------|-------|-------|----------------------------------------------------|
--3----|--8L---|--8----|----------------------------------------------------|
--3----|--8L---|--8----|----------------------------------------------------|
--3----|--8L---|--8----|--7--7--7--7--7--7--7--7--7--7--7--7--7--7--7--7----|


--9----|----------------------------|----------------------------|
--9----|----------------------------|----------------------------|
-------|----------------------------|----------------------------|
-------|--0--0--0--0--0--0--0--0----|-----7--7--7--7--7--7--7----|
-------|--0--0--0--0--0--0--0--0----|-----7--7--7--7--7--7--7----|
-------|--0--0--0--0--0--0--0--0----|-----7--7--7--7--7--7--7----|


----------------------------|----------------------------|
----------------------------|----------------------------|
----------------------------|----------------------------|
--8--8--8--8--8--8--8--8----|-----5--5--5--5--5--5--5----|
--8--8--8--8--8--8--8--8----|-----5--5--5--5--5--5--5----|
--8--8--8--8--8--8--8--8----|-----5--5--5--5--5--5--5----|


----------------------------|----------------------------|
----------------------------|----------------------------|
----------------------------|----------------------------|
--0--0--0--0--0--0--0--0----|-----7--7--7--7--7--7--7----|
--0--0--0--0--0--0--0--0----|-----7--7--7--7--7--7--7----|
--0--0--0--0--0--0--0--0----|-----7--7--7--7--7--7--7----|


----------------------------|----------------------------|
----------------------------|----------------------------|
----------------------------|----------------------------|
--8--8--8--8--8--8--8--8----|-----5--5--5--7--7--7--7----|
--8--8--8--8--8--8--8--8----|-----5--5--5--7--7--7--7----|
--8--8--8--8--8--8--8--8----|-----5--5--5--7--7--7--7----|


----------------------------------------------------|
----------------------------------------------------|
----------------------------------------------------|
------------------(Alternate guitars here)----------|
----------------------------------------------------|
-----0--0--0--0---------------0--0--0--0------------|


----------------------------------------------------|
----------------------------------------------------|
----------------------------------------------------|
----------------------------------------------------|
----------------------------------------------------|
--0--0--0--0-----0--0--0--12-0--0--0-----0--0--0----|


----------------------------------------------------|
----------------------------------------------------|
----------------------------------------------------|
----------------------------------------------------|
----------------------------------------------------|
--5--5--5--5-----5--5--5--8--8--8--8--3--3--3--3----|


----------------------------------------------------|
----------------------------------------------------|
----------------------------------------------------|
----------------------------------------------------|
----------------------------------------------------|
--0--0--0--0-----0--0--0--12-0--0--0-----0--0--0----|


----------------------------------------------------|-------|-------|-------|
----------------------------------------------------|-------|-------|-------|
----------------------------------------------------|--9L---|--9----|--9L---|
----------------------------------------------------|--x----|-------|--x----|
----------------------------------------------------|--7L---|--7----|--7L---|
--11-11-11-11-11-11-11-11-8--8--8--8--5--5--5--5----|-------|-------|-------|


-------|----------------------------------------------------|
-------|----------------------------------------------------|
--9----|----------------------------------------------------|
-------|----------------------------------------------------|
--7----|--0M-0M-0M-0M-0--------0M----------0M-------0M------|
-------|--0M-0M-0M-0M-0--------0M----------0M-------0M------|


----------------------------------------------------|
----------------------------------------------------|
----------------------------------------------------|
----------------------------------------------------|
--0M-0M-0M-0M-0--------0M----------0M-------0M------|
--0M-0M-0M-0M-0--------0M----------0M-------0M------|


----------------------------------------------------|
----------------------------------------------------|
----------------------------------------------------|
----------------------------------------------------|
--11M11M11M11M11-------11M---------11M------11M-----|
--11M11M11M11M11-------11M---------11M------11M-----|


----------------------------------------------------|
----------------------------------------------------|
----------------------------------------------------|
----------------------------------------------------|
--11M11M11M11M11-------11M---------11M------11M-----|
--11M11M11M11M11-------11M---------11M------11M-----|


----------------------------------------------------|
----------------------------------------------------|
----------------------------------------------------|
----------------------------------------------------|
--8M-8M-8M-8M-8--------8M----------8M-------8M------|
--8M-8M-8M-8M-8--------8M----------8M-------8M------|


----------------------------------------------------|
----------------------------------------------------|
----------------------------------------------------|
----------------------------------------------------|
--8M-8M-8M-8M-8--------8M----------8M-------8M------|
--8M-8M-8M-8M-8--------8M----------8M-------8M------|


----------------------------------------------------|
----------------------------------------------------|
----------------------------------------------------|
----------------------------------------------------|
--11M11M11M11M11-------11M---------11M------11M-----|
--11M11M11M11M11-------11M---------11M------11M-----|


----------------------------------------------------|-------|-------|-------|
----------------------------------------------------|-------|-------|-------|
----------------------------------------------------|-------|-------|-------|
----------------------------------------------------|--8L---|--8----|--0----|
--11M11M11M11M11M11M11M11M11-11-11-11-11-11-11-11---|--8L---|--8----|--0----|
--11M11M11M11M11M11M11M11M11-11-11-11-11-11-11-11---|--8L---|--8----|--0----|


-------|-------|-------|----------------------------------------------------|
-------|-------|-------|----------------------------------------------------|
-------|-------|-------|----------------------------------------------------|
--3----|--8L---|--8----|----------------------------------------------------|
--3----|--8L---|--8----|----------------------------------------------------|
--3----|--8L---|--8----|--7--7--7--7--7--7--7--7--7--7--7--7--7--7--7--7----|


--9----|----------------------------|----------------------------|
--9----|----------------------------|----------------------------|
-------|----------------------------|----------------------------|
-------|--0--0--0--0--0--0--0--0----|-----7--7--7--7--7--7--7----|
-------|--0--0--0--0--0--0--0--0----|-----7--7--7--7--7--7--7----|
-------|--0--0--0--0--0--0--0--0----|-----7--7--7--7--7--7--7----|


----------------------------|----------------------------|
----------------------------|----------------------------|
----------------------------|----------------------------|
--8--8--8--8--8--8--8--8----|-----5--5--5--5--5--5--5----|
--8--8--8--8--8--8--8--8----|-----5--5--5--5--5--5--5----|
--8--8--8--8--8--8--8--8----|-----5--5--5--5--5--5--5----|


----------------------------|----------------------------|
----------------------------|----------------------------|
----------------------------|----------------------------|
--0--0--0--0--0--0--0--0----|-----7--7--7--7--7--7--7----|
--0--0--0--0--0--0--0--0----|-----7--7--7--7--7--7--7----|
--0--0--0--0--0--0--0--0----|-----7--7--7--7--7--7--7----|


----------------------------|----------------------------|
----------------------------|----------------------------|
----------------------------|----------------------------|
--8--8--8--8--8--8--8--8----|-----5--5--5--7--7--7--7----|
--8--8--8--8--8--8--8--8----|-----5--5--5--7--7--7--7----|
--8--8--8--8--8--8--8--8----|-----5--5--5--7--7--7--7----|


----------------------------|----------------------------|
----------------------------|----------------------------|
----------------------------|----------------------------|
--0--0--0--0--0--0--0--0----|-----7--7--7--7--7--7--7----|
--0--0--0--0--0--0--0--0----|-----7--7--7--7--7--7--7----|
--0--0--0--0--0--0--0--0----|-----7--7--7--7--7--7--7----|


----------------------------|----------------------------|
----------------------------|----------------------------|
----------------------------|----------------------------|
--8--8--8--8--8--8--8--8----|-----5--5--5--5--5--5--5----|
--8--8--8--8--8--8--8--8----|-----5--5--5--5--5--5--5----|
--8--8--8--8--8--8--8--8----|-----5--5--5--5--5--5--5----|


----------------------------|----------------------------|
----------------------------|----------------------------|
----------------------------|----------------------------|
--0--0--0--0--0--0--0--0----|-----7--7--7--7--7--7--7----|
--0--0--0--0--0--0--0--0----|-----7--7--7--7--7--7--7----|
--0--0--0--0--0--0--0--0----|-----7--7--7--7--7--7--7----|


----------------------------|----------------------------|-------|-------|
----------------------------|----------------------------|-------|-------|
----------------------------|----------------------------|-------|-------|
--8--8--8--8--8--8--8--8----|-----5--5--5--7--7--7--7----|--0L---|--0----|
--8--8--8--8--8--8--8--8----|-----5--5--5--7--7--7--7----|--0L---|--0----|
--8--8--8--8--8--8--8--8----|-----5--5--5--7--7--7--7----|--0L---|--0----|


-------|-------|-------|-------|-------|-------|
-------|-------|-------|-------|-------|-------|
-------|-------|--10---|--9----|--3----|--6----|
--0L---|--0----|--x----|--x----|--x----|--x----|
--0L---|--0----|--8----|--7----|--1----|--4----|
--0L---|--0----|-------|-------|-------|-------|


----------------------------------------------------|
----------------------------------------------------|
----------------------------------------------------|
----------------------------------------------------|
--0M-0M-0M-0M-------0M-0M---------------------------|
--0M-0M-0M-0M-------0M-0M---------------------------|


----------------------------------------------------|
----------------------------------------------------|
----------------------------------------------------|
----------------------------------------------------|
--0M-0M-0M-0M-------0M-0M---------------------------|
--0M-0M-0M-0M-------0M-0M---------------------------|


----------------------------------------------------|
----------------------------------------------------|
----------------------------------------------------|
----------------------------------------------------|
--0M-0M-0M-0M-------0M-0M-------0M----0M----0M-0M---|
--0M-0M-0M-0M-------0M-0M-------0M----0M----0M-0M---|


----------------------------------------------------|-------|
----------------------------------------------------|-------|
----------------------------------------------------|-------|
----------------------------------------------------|(i dont give a f*ck)|
--0M----0M----0M----0M-0M-0M----0M----0M----0M------|-------|
--0M----0M----0M----0M-0M-0M----0M----0M----0M------|-------|


----------------------------------------------------|
----------------------------------------------------|
----------------------------------------------------|
--------------------------12s-----------------------|
--0M-0M----0M-0M----------12s-----------------------|
--0M-0M----0M-0M----------12s-----------------------|


----------------------------------------------------|
----------------------------------------------------|
----------------------------------------------------|
----------------------------------------------------|
--------0M-0M----0M-0M----8-----------7-------------|
--------0M-0M----0M-0M----------0M----------0M------|


----------------------------------------------------|
----------------------------------------------------|
----------------------------------------------------|
----------------------------------------------------|
--8M-8M----8M-8s----------------------------8M-8M---|
--8M-8M----8M-8s----------------------------8M-8M---|


----------------------------------------------------|
----------------------------------------------------|
----------------------------------------------------|
--------------------------------------7PH~----------|
--11M11M11M11M11------------------------------------|
--11M11M11M11M11----------11----0M------------------|


----------------------------------------------------|
----------------------------------------------------|
----------------------------------------------------|
--------------------------12s-----------------------|
--0M-0M----0M-0M----------12s-----------------------|
--0M-0M----0M-0M----------12s-----------------------|


----------------------------------------------------|
----------------------------------------------------|
----------------------------------------------------|
----------------------------------------------------|
--------0M-0M----0M-0M----8-----------7-------------|
--------0M-0M----0M-0M----------0M----------0M------|


----------------------------------------------------|
----------------------------------------------------|
----------------------------------------------------|
----------------------------------------------------|
--8M-8M----8M-8s----------------------------8M-8M---|
--8M-8M----8M-8s----------------------------8M-8M---|


----------------------------------------------------|
----------------------------------------------------|
----------------------------------------------------|
--------------------------------------7PH~----------|
--11M11M11M11M11------------------------------------|
--11M11M11M11M11----------11----0M------------------|


----------------------------------------------------|
----------------------------------------------------|
----------------------------------------------------|
--------------------------12s-----------------------|
--0M-0M----0M-0M----------12s-----------------------|
--0M-0M----0M-0M----------12s-----------------------|


----------------------------------------------------|
----------------------------------------------------|
----------------------------------------------------|
----------------------------------------------------|
--------0M-0M----0M-0M----8-----------7-------------|
--------0M-0M----0M-0M----------0M----------0M------|


----------------------------------------------------|
----------------------------------------------------|
----------------------------------------------------|
----------------------------------------------------|
--8M-8M----8M-8s----------------------------8M-8M---|
--8M-8M----8M-8s----------------------------8M-8M---|


----------------------------------------------------|
----------------------------------------------------|
----------------------------------------------------|
--------------------------------------7PH~----------|
--11M11M11M11M11------------------------------------|
--11M11M11M11M11----------11----0M------------------|


----------------------------------------------------|
----------------------------------------------------|
----------------------------------------------------|
--------------------------12s-----------------------|
--0M-0M----0M-0M----------12s-----------------------|
--0M-0M----0M-0M----------12s-----------------------|


----------------------------------------------------|
----------------------------------------------------|
----------------------------------------------------|
----------------------------------------------------|
--------0M-0M----0M-0M----8-----------7-------------|
--------0M-0M----0M-0M----------0M----------0M------|


----------------------------------------------------|
----------------------------------------------------|
----------------------------------------------------|
----------------------------------------------------|
--8M-8M----8M-8s----------------------------8M-8M---|
--8M-8M----8M-8s----------------------------8M-8M---|


----------------------------------------------------|
----------------------------------------------------|
----------------------------------------------------|
--------------------------------------7PH~ ----------|
--11M11M11M11M11------------------------------------|
--11M11M11M11M11----------11----0M------------------|


----------------------------------------------------|
----------------------------------------------------|
----------------------------------------------------|
----------------------------------------------------|
----------------------------------------------------|
--8--8--8--7--7--7--5--5--8--8--8--7--7--7--5--5----|


----------------------------------------------------|----------|----------|
----------------------------------------------------|----------|----------|
----------------------------------------------------|----------|----------|
--------------------------11~-----------------------|-----DO---|---THE----|
--------------------------11~-----------------------|----------|----------|
--11-11-11-11-11-11-11-11-11~-----------------------|----------|----------|


----------|----------|----------|----------|----------|----------|
----------|----------|----------|----------|----------|----------|
----------|----------|----------|----------|----------|----------|
-Chorus---|--no------|--guitar--|--here----|--:D------|---:D-----|
----------|----------|----------|----------|----------|----------|
----------|----------|----------|----------|----------|----------|


----------------------------|----------------------------|
----------------------------|----------------------------|
----------------------------|----------------------------|
--0--0--0--0--0--0--0--0----|-----7--7--7--7--7--7--7----|
--0--0--0--0--0--0--0--0----|-----7--7--7--7--7--7--7----|
--0--0--0--0--0--0--0--0----|-----7--7--7--7--7--7--7----|


----------------------------|----------------------------|
----------------------------|----------------------------|
----------------------------|----------------------------|
--8--8--8--8--8--8--8--8----|-----5--5--5--5--5--5--5----|
--8--8--8--8--8--8--8--8----|-----5--5--5--5--5--5--5----|
--8--8--8--8--8--8--8--8----|-----5--5--5--5--5--5--5----|


----------------------------|----------------------------|
----------------------------|----------------------------|
----------------------------|----------------------------|
--0--0--0--0--0--0--0--0----|-----7--7--7--7--7--7--7----|
--0--0--0--0--0--0--0--0----|-----7--7--7--7--7--7--7----|
--0--0--0--0--0--0--0--0----|-----7--7--7--7--7--7--7----|


----------------------------|----------------------------|
----------------------------|----------------------------|
----------------------------|----------------------------|
--8--8--8--8--8--8--8--8----|-----5--5--5--7--7--7--7----|
--8--8--8--8--8--8--8--8----|-----5--5--5--7--7--7--7----|
--8--8--8--8--8--8--8--8----|-----5--5--5--7--7--7--7----|


----------------------------|----------------------------|
----------------------------|----------------------------|
----------------------------|----------------------------|
--0--0--0--0--0--0--0--0----|-----7--7--7--7--7--7--7----|
--0--0--0--0--0--0--0--0----|-----7--7--7--7--7--7--7----|
--0--0--0--0--0--0--0--0----|-----7--7--7--7--7--7--7----|


----------------------------|----------------------------|
----------------------------|----------------------------|
----------------------------|----------------------------|
--8--8--8--8--8--8--8--8----|-----5--5--5--5--5--5--5----|
--8--8--8--8--8--8--8--8----|-----5--5--5--5--5--5--5----|
--8--8--8--8--8--8--8--8----|-----5--5--5--5--5--5--5----|


----------------------------|----------------------------|
----------------------------|----------------------------|
----------------------------|----------------------------|
--0--0--0--0--0--0--0--0----|-----7--7--7--7--7--7--7----|
--0--0--0--0--0--0--0--0----|-----7--7--7--7--7--7--7----|
--0--0--0--0--0--0--0--0----|-----7--7--7--7--7--7--7----|


----------------------------|----------------------------|
----------------------------|----------------------------|
----------------------------|----------------------------|
--8--8--8--8--8--8--8--8----|-----5--5--5--7--7--7--7----|
--8--8--8--8--8--8--8--8----|-----5--5--5--7--7--7--7----|
--8--8--8--8--8--8--8--8----|-----5--5--5--7--7--7--7----|


----------------------------------------------------||
----------------------------------------------------||
----------------------------------------------------||
----------------------------------------------------||
----------------------------------------------------||
--0--0--0--0--3--3--3--0----------------------------||


Legend
L - tied note
x - dead note
h - hammer on/pull off
b - bend
s - slide
~ - vibrato
g - ghost note
> - accentuated note
t - trill
M - palm mute
. - staccato
P - popping (bass)
S - slapping (bass)
+ - tapping
W - wide vibrato
< - fade in
w - whammy bar
= - tremolo picking
v - brush up
^ - brush down
V - pick stroke up
n - pick stroke down
PH - Pinch Harmonic
Tap to rate this tab
# A B C D E F G H I J K L M N O P Q R S T U V W X Y Z