Song name
# A B C D E F G H I J K L M N O P Q R S T U V W X Y Z

Crown The Empire - Twos Too Many tab

Still working on the rest of the song, but I thought I should
get this out there while is completed. Tell me what you think of it!

Tuning: Drop B


|-------------------------------------------------------------------|
|-------------------------------------------------------------------|
|-------------------------------------------------------------------|
|-------------------------------------------------------------------|
|-1/5-5--777-8-7-5-4----444-5-5/7~~---1--111-3-1---0-----------4~~--|
|------0-------------0-----------------0---------5---0---00-00------|
                        ..               ..              .. ..

|-------------------------------------------------------------------|
|-------------------------------------------------------------------|
|-------------------------------------------------------------------|
|--------------------------------------------------------66-66------|
|--5--777-8-7-5-4----444-5-5/7~~---1--111-3-1---00-00-00-44-44------|
|---0-------------0-----------------0---------5-00-00-00------------|
                     ..               ..        .. .. .. .. .  
Tap to rate this tab
# A B C D E F G H I J K L M N O P Q R S T U V W X Y Z