Song name
# A B C D E F G H I J K L M N O P Q R S T U V W X Y Z

Crown The Empire - The One You Feed tab

-------------------------------------------------------------------------------
                             The One You Feed - Crown the Empire
-------------------------------------------------------------------------------
Tabbed by: Adam Guion
E-mail: AdamGuion@Gmail.com

Tuning: Drop B
So maybe it's just me, but I don't really hear a "lead" guitar in this song.
I suppose somebody could transpose the synth or piano, but that person isn't
me.lol Real easy song with one of the catchiest choruses on the album. Have 
jamming out to this one and cheers! 

Intro
C#|---------------------------------------------------------------------------|
G#|---------------------------------------------------------------------------|
E |---------------------------------------------------------------------------|
B |---------------------------------------------------------------------------|
F#|-00-0-0-0000-0000-00-0-0-0000-000-88-8-8-8888-888877-7-7-7777-141414-------|
B |-00-0-0-0000-0000-00-0-0-0000-000-88-8-8-8888-888877-7-7-7777-141414-------|

Interlude

Chorus
C#|---------------------------------------------------------------------------|
G#|---------------------------------------------------------------------------|
E |---------------------------------------------------------------------------|
B |--0-0-0-0-0-0------8-8-8-8-8-8-----10-10-10-10-10-10-----5-5-5-5-5-5-------|
F#|--0-0-0-0-0-0-x2---8-8-8-8-8-8-x2--10-10-10-10-10-10-x2--5-5-5-5-5-5-x2----|
B |--0-0-0-0-0-0------8-8-8-8-8-8-----10-10-10-10-10-10-----5-5-5-5-5-5-------|

Re-Intro
C#|---------------------------------------------------------------------------|
G#|---------------------------------------------------------------------------|
E |---------------------------------------------------------------------------|
B |---------------------------------------------------------------------------|
F#|-00-0-0-0000-0000-00-0-0-0000-000-88-8-8-8888-888877-7-7-7777-141414-------|
B |-00-0-0-0000-0000-00-0-0-0000-000-88-8-8-8888-888877-7-7-7777-141414-------|

Verse: This is the only "difficult" part. Just listen closely and you'll get it. 
C#|---------------------------------------------------------------------------|
G#|---------------------------------------------------------------------------|
E |---------------------------------------------------------------------------|
B |---------------------------------------------------------------------------|
F#|00-0-0---0-0000-1--000-00---00-0-0-0-12/-000-00-00-5555--------------------|
B |00-0-0---0-0000-1--000-00---00-0-0-0-12/-000-00-00------8888---------------|

C#|---------------------------------------------------------------------------|
G#|---------------------------------------------------------------------------|
E |---------------------------------------------------------------------------|
B |----------------------------0-------0--------------------------------------|
F#|00-0-0---0000-000-00-000--000-00-00-0--------------------------------------|
B |00-0-0---0000-000-00-111--000-00-00-0--------------------------------------|

Chorus
The first time it's the normal chorus, the second time it's this  v
C#|---------------------------------------------------------------------------|
G#|---------------------------------------------------------------------------|
E |---------------------------------------------------------------------------|
B |--0-0-0-0-0-0------8-8-8-8-8-8-----10-10-10-10-10-10-----7-7-7-7-7-7-------|
F#|--0-0-0-0-0-0-x2---8-8-8-8-8-8-x2--10-10-10-10-10-10-x2--5-5-5-5-5-5-x2----|
B |--0-0-0-0-0-0------8-8-8-8-8-8-----10-10-10-10-10-10-----------------------|


Breakdown 1
C#|---------------------------------------------------------------------------|
G#|---------------------------------------------------------------------------|
E |---------------------------------------------------------------------------|
B |---------------------------------------------------------------------------|
F#|0-1-0-3-0-1-0-3-6-----0-1-0-3-0-1-0-3--------------------------------------|
B |0-1-0-3-0-1-0-3-6-----0-1-0-3-0-1-0-3--------------------------------------|

Breakdown 2
C#|---------------------------------------------------------------------------|
G#|---------------------------------------------------------------------------|
E |---------------------------------------------------------------------------|
B |-------------------------------------------------------0~~~~~~~------------|
F#|-0-0-0-0-0-00-00-0000---X4---------5--x16----1--x16----0~~~~~~~------------|
B |-0-0-0-0-0-00-00-0000--------------5---------1---------0~~~~~~~------------|

Piano Interlude

Re-Intro
C#|---------------------------------------------------------------------------|
G#|---------------------------------------------------------------------------|
E |---------------------------------------------------------------------------|
B |---------------------------------------------------------------------------|
F#|-00-0-0-0000-0000-00-0-0-0000-000-88-8-8-8888-888877-7-7-7777-141414-------|
B |-00-0-0-0000-0000-00-0-0-0000-000-88-8-8-8888-888877-7-7-7777-141414-------|

C#|---------------------------------------------------------------------------|
G#|---------------------------------------------------------------------------|
E |---------------------------------------------------------------------------|
B |------------------0--------------------------------------------------------|
F#|-00-0-0--0-0-0000-0--------------------------------------------------------|
B |-00-0-0--0-0-0000-0--------------------------------------------------------|



************************************

| /   slide up
| \   slide down
| h   hammer-on
| p   pull-off
| ~   vibrato
| +   harmonic
| x   Mute note
| b   Bend
| pb  Pre-bend
| br  Bend release
| pbr Pre-bend release
| brb Bend release bend

************************************
Tap to rate this tab
# A B C D E F G H I J K L M N O P Q R S T U V W X Y Z