Song name
# A B C D E F G H I J K L M N O P Q R S T U V W X Y Z

Crown The Empire - Wake Me Up Acoustic tab

The acoustic version of Wake Me Up, by Crown the Empire. Email me or comment if 
you think there are mistakes. For the strumming pattern, watch the video on 
YouTube. Hope you all enjoy!

Tabbed by: lafawafa
E-mail: bloo2797@yahoo.com

Tuning: Drop C# (C# G# E B F# C#)
------------------------------

Intro (going into Verse 1):

"This world keeps pushing down upon me..."

C#|----------------------------------------------------------------|
G#|----------------------------------------------------------------|
E |----------------------------------------------------------------|
B#|-0-0-0-0--0-0-0-00000-00--10-10-101010101010-10-10-101010101010-|
F#|-0-0-0-0--0-0-0-00000-00--8--8--8-8-8-8-8-8--7--7--7-7-7-7-7-7--|
C#|-0-0-0-0--0-0-0-00000-00--8--8--8-8-8-8-8-8--7--7--7-7-7-7-7-7--|
    * * * *  

C#|--------------------------------------------------------|
G#|--------------------------------------------------------|
E |--------------------------------------------------------|
B#|-0-0-0-000000-00--10-10-101010101010-10-10-101010101010-| (x3)
F#|-0-0-0-000000-00--8--8--8-8-8-8-8-8--7--7--7-7-7-7-7-7--|
C#|-0-0-0-000000-00--8--8--8-8-8-8-8-8--7--7--7-7-7-7-7-7--|

Pre-Chorus:

"We can't ponder on this...world forever..."

C#|----------------------------------------------------------------------|
G#|----------------------------------------------------------------------|
E |----------------------------------------------------------------------|
B#|-8-8-8-888888-8-------0-0-0-000000-0-------101010-101010101010-10-----|
F#|-5-5-5-555555-5-(x2)--0-0-0-000000-0-(x2)--8-8-8--8-8-8-8-8-8--8-(x2)-|
C#|-5-5-5-555555-5-------0-0-0-000000-0-------8-8-8--8-8-8-8-8-8--8------|
                                                                         |

----------------------------------|
----------------------------------|
----------------------------------|
-11-11-11-111111111111-11\0-0-0-0-|
-7--7--7--7-7-7-7-7-7---7\0-0-0-0-|
-7--7--7--7-7-7-7-7-7---7\0-0-0-0-|
                          * * * *
Chorus:

"Wake me up from these dreams that never end..."

C#|-------------------------------------------------------------------------------------|
G#|-------------------------------------------------------------------------------------|
E |-------------------------------------------------------------------------------------|
B#|-0-0-0-000000-00--8-8-8-888888-88--101010-101010101010-1010-10-10-10-101010101010-10-| (x2)
F#|-0-0-0-000000-00--5-5-5-555555-55--8-8-8--8-8-8-8-8-8--8-8--7--7--7--7-7-7-7-7-7--7--|
C#|-0-0-0-000000-00--5-5-5-555555-55--8-8-8--8-8-8-8-8-8--8-8--7--7--7--7-7-7-7-7-7--7--|

Breakdown:

C#|-----------------|
G#|-----------------|
E |-----------------|
B#|-0-0-0-000000-00-| (x2)
F#|-0-0-0-000000-00-|
C#|-0-0-0-000000-00-|

Verse 2:

"While I keep searching for an answer.."

C#|--------------------------------------------------------------------|
G#|--------------------------------------------------------------------|
E |--------------------------------------------------------------------|
B#|-101010-10101010101010--0-0-0-0000000--7-7-7-7777777--5-5-5-5555555-| (x2)
F#|-8-8-8--8-8-8-8-8-8-8---0-0-0-0000000--3-3-3-3333333--3-3-3-3333333-|
C#|-8-8-8--8-8-8-8-8-8-8---0-0-0-0000000--3-3-3-3333333--2-2-2-2222222-|

C#|------------------|
G#|------------------|
E |------------------|
B#|-5/10-11-11111111-| (Play this after the second time)
F#|-3/8--7--7-7-7-7--|
C#|-2/8--7--7-7-7-7--|
         *        *

Chorus:

"Wake me up from these dreams that never end..."

C#|-------------------------------------------------------------------------------------|
G#|-------------------------------------------------------------------------------------|
E |-------------------------------------------------------------------------------------|
B#|-0-0-0-000000-00--8-8-8-888888-88--101010-101010101010-1010-10-10-10-101010101010-10-| (x2)
F#|-0-0-0-000000-00--5-5-5-555555-55--8-8-8--8-8-8-8-8-8--8-8--7--7--7--7-7-7-7-7-7--7--|
C#|-0-0-0-000000-00--5-5-5-555555-55--8-8-8--8-8-8-8-8-8--8-8--7--7--7--7-7-7-7-7-7--7--|

C#|---|
G#|---|
E |---|
B#|-0-| Let it ring. That's the end! c:
F#|-0-|
C#|-0-|
Tap to rate this tab
 
# A B C D E F G H I J K L M N O P Q R S T U V W X Y Z