Song name
# A B C D E F G H I J K L M N O P Q R S T U V W X Y Z

Crown The Empire - Forever tab

Crown the Empire's cover of Forever (originally by Drake). There are a few mistakes with 
the strumming in the first verse, but it's pretty much all zeroes and the general 
strumming pattern is easy. Hope you all enjoy!

Tabbed by: lafawafa
E-mail: bloo2797@yahoo.com

Tuning: Drop C (CGcFAD)
------------------------------

Intro:

D|-------------------|
A|-------------------|
F|-------------------| Strum each part once and let them ring,
c|-0----10----8----5-| listen to the song to know when each part is played
G|-0----10----8----5-|
C|-0----10----8----5-|

D|---------------------------------------------------------------|
A|---------------------------------------------------------------|
F|---------------------------------------------------------------|
c|-000-000-000-000-00000--101010-101010-101010-101010-1010101010-| (Those are 10's by 
the way)
G|-000-000-000-000-00000--101010-101010-101010-101010-1010101010-|
C|-000-000-000-000-00000--101010-101010-101010-101010-1010101010-|
   *** *** *** *** *****  * * *  * * *  * * *  * * *  * * * * *

D|----------------------------------------------|
A|----------------------------------------------|
F|----------------------------------------------|
c|-888-888-888-888-88888--555-555-555-555-55555-|
G|-888-888-888-888-88888--555-555-555-555-55555-|
C|-888-888-888-888-88888--555-555-555-555-55555-|
   *** *** *** *** *****  *** *** *** *** *****

D|---|
A|---|
F|---|
c|-0-|
G|-0-| Let it ring until Verse 1 comes in.
C|-0-|

Verse 1:

(0:37-0:42)

D|------------------------------|
A|------------------------------|
F|------------------------------|
c|-0-00-0-00-0-0000-0-0-00-0-00-|
G|-0-00-0-00-0-0000-0-0-00-0-00-|
C|-0-00-0-00-0-0000-0-0-00-0-00-|
   * ** * ** * **** * * ** * **

(0:42-0:46)

D|--------|
A|--------|
F|--------|
c|-0-00-0-| (You'll have to find out where to play this,
G|-0-00-0-| but it's relatively easy to find)
C|-0-00-0-|
   * ** *

(0:46-0:55)

D|----------------------------------------------------|
A|----------------------------------------------------|
F|----------------------------------------------------|
c|-0000-0-0--0--0-0-0000--0-00-0-0-0--0000-00-0-00-00-|
G|-0000-0-0--0--0-0-0000--0-00-0-0-0--0000-00-0-00-00-|
C|-0000-0-0--0--0-0-0000--0-00-0-0-0--0000-00-0-00-00-|
   **** * *  *  * * ****  * ** * * *  **** ** * ** **

(0:55-1:01)

D|------------------------|
A|------------------------|
F|------------------------|
c|-0-------0000-00-0-00-0-|
G|-0-(x16)-0000-00-0-00-0-|
C|-0-------0000-00-0-00-0-|
           **** ** * ** *

(1:01-1:13)

D|-------------------------------------------------------------------|
A|-------------------------------------------------------------------|
F|-------------------------------------------------------------------|
c|-0-00-0-00-000--0000-00-0-00-000--0-00-0-00-000--0000-00-0-00-0000-|
G|-0-00-0-00-000--0000-00-0-00-000--0-00-0-00-000--0000-00-0-00-0000-|
C|-0-00-0-00-000--0000-00-0-00-000--0-00-0-00-000--0000-00-0-00-0000-|
   * ** * ** ***  **** ** * ** ***  * ** * ** ***  **** ** * ** ****

As I'm posting what the rhythm plays, I don't think there's anything else played until 
the chorus. If you do want to play the lead from 1:19 to 1:25, I'm pretty sure it's just 
octaves, so...

Chorus:

(1:25-1:37)

D|----------------------------------|
A|----------------------------------|
F|----------------------------------|
c|-0-------10-------8-------5-------|
G|-0-(x16)-10-(x16)-8-(x16)-5-(x16)-|
C|-0-------10-------8-------5-------|

(1:37-1:49)

D|-----------------------------------------------------------|
A|-----------------------------------------------------------|
F|-----------------------------------------------------------|
c|-0-0-000-0-0-000-0-0-0--10-10-101010-10-10-101010-10-10-10-|
G|-0-0-000-0-0-000-0-0-0--10-10-101010-10-10-101010-10-10-10-|
C|-0-0-000-0-0-000-0-0-0--10-10-101010-10-10-101010-10-10-10-|
   * * *** * * *** * * *  *  *  * * *  *  *  * * *  *  *  *

D|--------------------------------------------|
A|--------------------------------------------|
F|--------------------------------------------|
c|-8-8-888-8-8-888-8-8-8--555-555-555-555-5-5-|
G|-8-8-888-8-8-888-8-8-8--555-555-555-555-5-5-|
C|-8-8-888-8-8-888-8-8-8--555-555-555-555-5-5-|
   * * *** * * *** * * *  * * *** * * *** * *

D|---|
A|---|
F|---|
c|-0-| Let it ring until the singing at the Bridge comes in,
G|-0-| then mute it
C|-0-|

Bridge (After the singing):

(2:10-2:16)

D|---|
A|---|
F|---|
c|-0-| Let it ring until 2:16.
G|-0-|
C|-1-|

(2:16-2:37)

D|------------------------------------------------------------------|
A|------------------------------------------------------------------|
F|------------------------------------------------------------------|
c|------------------0-00-0-00-000--0000-00-0-00-0000-------0-00-0-0-|
G|------------------0-00-0-00-000--0000-00-0-00-0000-(x2)--0-00-0-0-|
C|-0-0-0-0-0-0-(x2)-0-00-0-00-000--0000-00-0-00-0000-------0-00-0-0-|
   * * * * * *      * ** * ** ***  **** ** * ** ****       * ** * *

(2:37-2:45)

D|------------------------------------------|
A|------------------------------------------|
F|------------------------------------------|
c|-0000-00-0-00-000--0--------0000-0-0-00-0-|
G|-0000-00-0-00-000--0-(x16)--0000-0-0-00-0-|
C|-0000-00-0-00-000--0--------0000-0-0-00-0-|
   **** ** * ** ***           **** * * ** *

Chorus:

(2:46-2:58)


D|----------------------------------|
A|----------------------------------|
F|----------------------------------|
c|-0-------10-------8-------5-------|
G|-0-(x16)-10-(x16)-8-(x16)-5-(x16)-|
C|-0-------10-------8-------5-------|

(2:58-3:10)

D|-----------------------------------------------------------|
A|-----------------------------------------------------------|
F|-----------------------------------------------------------|
c|-0-0-000-0-0-000-0-0-0--10-10-101010-10-10-101010-10-10-10-|
G|-0-0-000-0-0-000-0-0-0--10-10-101010-10-10-101010-10-10-10-|
C|-0-0-000-0-0-000-0-0-0--10-10-101010-10-10-101010-10-10-10-|
   * * *** * * *** * * *  *  *  * * *  *  *  * * *  *  *  *

D|--------------------------------------------|
A|--------------------------------------------|
F|--------------------------------------------|
c|-8-8-888-8-8-888-8-8-8--555-555-555-555-5-5-|
G|-8-8-888-8-8-888-8-8-8--555-555-555-555-5-5-|
C|-8-8-888-8-8-888-8-8-8--555-555-555-555-5-5-|
   * * *** * * *** * * *  * * *** * * *** * *

(3:10-3:34)

D|----------------------------------|
A|----------------------------------|
F|----------------------------------|
c|-0-------10-------8-------5-------| (x2)
G|-0-(x16)-10-(x16)-8-(x16)-5-(x16)-|
C|-0-------10-------8-------5-------|

That's the end!
Tap to rate this tab
# A B C D E F G H I J K L M N O P Q R S T U V W X Y Z