Song name
# A B C D E F G H I J K L M N O P Q R S T U V W X Y Z

Crown The Empire - Johnny Ringo tab

Johnny Ringo tabs by Crown the Empire
Tuning Drop c#
(Just Tabs so people can learn if they want great song!)

Intro 
(0.00-0.20 onward) 

D#|---------------------------------------------------------------------|
A#|---------------------------------------------------------------------|
F#|---------------------------------------------------------------------|(x2)  
C#|--0-----0-------8-8---7-7---3----5-----5-------7-7-7-7--2-2-2-2--0~--| 
G#|--0(x5)-0(x5)---8-8---7-7---3----5(x5)-5(x5)---7-7-7-7--2-2-2-2--0~--|
C#|--0-----0-------8-8---7-7---3----5-----5-------7-7-7-7--2-2-2-2--0~--|

Verse
(0.35-0.54)

(drum/Vocal fill no guitar)

Chorus 
(0.55-1.17) 

D#|--------------------------------------------------------------------|
A#|--------------------------------------------------------------------|
F#|--------------------------------------------------------------------| (x2)
C#|---0--------8-------5-----------------------------------------------|
G#|---0(x12)---8(x6)---5(x6)-------------------------------------------|
C#|---0--------8-------5-----------------------------------------------|

D#|-------------------------------------------------------------------------|
A#|-------------------------------------------------------------------------|
F#|-------------------------------------------------------------------------|
C#|--0-----0-------8-8---7-7---3-----5------5--------7-7-7-7--2-2-2-2---0~--|
G#|--0(x5)-0(x5)---8-8---7-7---3-----5(x5)--5(x5)----7-7-7-7--2-2-2-2---0~--|
C#|--0-----0-------8-8---7-7---3-----5------5--------7-7-7-7--2-2-2-2---0~--|

Verse 
(1.18-1.33)

(drum/Vocal fill no guitar)

Bridge 
(1.34-1.52)

D#|-------------------------------------------------------------------------|
A#|-------------------------------------------------------------------------|
F#|-------------------------------------------------------------------------|
C#|---0-----------11---------8----------11----------------------------------|
G#|---0(x12)------11(x12)----8(x12)-----11(x10)-----------------------------|
C#|---0-----------11---------8----------11----------------------------------|

(short guitar riff) 

Chorus 2
(1.53-2.24) 
               (x2)
D#|[--------------------------]--------------------------------------|
A#|[--------------------------]--------------------------------------|
F#|[--------------------------]--------------------------------------| 
C#|[---0--------8-------5-----]---8-------5------0-------3-----------|
G#|[---0(x12)---8(x6)---5(x6)-]---8(x6)---5(x6)--0(x6)---3(x6)-------|
C#|[---0--------8-------5-----]---8-------5------0-------3-----------|

D#|----------------------------------------------------------------------|
A#|----------------------------------------------------------------------|
F#|----------------------------------------------------------------------|
C#|---8------5------0--------0~------------------------------------------|
G#|---8(x6)--5(x6)--0(x12)---0~------------------------------------------|
C#|---8------5------0--------0~------------------------------------------|

Bridge 2 Fill 
(2.25-2.43)

(No Guitar)

Breakdown
(2.44-3.14) 
(Bar strings and strum to pattern in song)  
D#|---------------------------------------------------------------------|
A#|---------------------------------------------------------------------|
F#|---------------------------------------------------------------------|
C#|---x-----------------------------------------------------------------|
G#|---x-----------------------------------------------------------------|
C#|---x-----------------------------------------------------------------|

Breakdown Fill 
(3.15-3.24)

Outro 
(3.25-4.19)

D#|--------------------------------------------------------------------|
A#|--------------------------------------------------------------------|
F#|--------------------------------------------------------------------| (x4)
C#|--0-------8------11-------------------------------------------------|
G#|--0(x12)--8(x6)--11(x6)---------------------------------------------|
C#|--0-------8------11-------------------------------------------------|

D#|--------------------------------------------------------------------|
A#|--------------------------------------------------------------------|
F#|--------------------------------------------------------------------| (x2)
C#|--0-----0-------8-8---7-7---3-----5------5--------7-7-7-7--2-2-2-2--|
G#|--0(x5)-0(x5)---8-8---7-7---3-----5(x5)--5(x5)----7-7-7-7--2-2-2-2--|
C#|--0-----0-------8-8---7-7---3-----5------5--------7-7-7-7--2-2-2-2--|

(End)
Tap to rate this tab
 
# A B C D E F G H I J K L M N O P Q R S T U V W X Y Z