Guitaretab - guitar tabs
Song name
# A B C D E F G H I J K L M N O P Q R S T U V W X Y Z

Crowned King - Dont Wanna Go tab

Crowned King ---> www.crownedking.com
Don't Wanna Go

~~ = let ring
* = harmonics
/ = slide up

Intro:
e------------------------------------------|
B------------------------------------------|
G----------6--------9--------4x4x4555555--|
D--4-------6-(x16)--9-(x16)--4x4x4---------|
A--4-(x16)-4--------7--------2x2x2---------|
E--2---------------------------------------|

Verse:
e------------------|
B------------------|
G-------4/6/7/9----|
D--4----x/x/x/x----|   x 2
A-4-~~-2/4/5/7---|
E--2---------------|
[ Tab from: http://www.guitaretab.com/c/crowned-king/48908.html ]
Chorus:
e-----------------------------------|
B-----------------------------------|
G---------6-------9-------4---------|
D-4-------6-(x16)-9-(x16)-4-(x16)---|   x 2
A-4-(x16)-4-------7-------2---------|
E-2---------------------------------|

Fill in thingy:
e-----------------------------------|
B-----------------------------------|
G----4--------------4----44---------|
D-44444444444444-4444444444---------|
A-44424444444444-4442444422---------|
E-222-2222222222-222-2222-----------|
Mess around with this sort of pattern

Bridge: strum chorus chords

Note* I don't know if this is right..should be close tho..give ya an idea..
just wanted a Crowned King tab on here finally!

* i fixed up the octuves in the verse. its all good.
Related for Dont Wanna Go tab