Song name
# A B C D E F G H I J K L M N O P Q R S T U V W X Y Z

Cruachan - The Morrigans Call tab

Intro:

Part I
e|---------------------------------5--555--5--555--7--777--7--777--|
h|-5--555--5--555--8--888--8--888----------------------------------|
g|-----------------------------------------------------------------|
D|-----------------------------------------------------------------|
A|-----------------------------------------------------------------|
E|-----------------------------------------------------------------|

Part II
e|-10--101010--10--101010--|
h|-------------------------|
g|-------------------------|
D|-------------------------|
A|-------------------------|
E|-------------------------|

Main Part:

e|----------------5-7---7--10-7--5---------------|
h|-5--7-8--5-7--8------------------8-7--5---5----|
g|----------------------------------------7---(7)|
D|-----------------------------------------------|
A|-----------------------------------------------|
E|-----------------------------------------------|


Order:
Intro I x2
Intro II
Main Part x4
Intro I+II
Main Part x8


Easy song, but still sounds good. I think Cruachan plays the whole song with two guitars 
Canon, but still with the same notes.

First tab, don't be too draconic :]
Tap to rate this tab
# A B C D E F G H I J K L M N O P Q R S T U V W X Y Z