Song name
# A B C D E F G H I J K L M N O P Q R S T U V W X Y Z

Cruachan - Cuchulainn tab

THIS IS MY FIRST TAB IT MAY NOT BE PERFECT AND I CANT FIGURE OUT SOME RIFFS BUT 
THIS IS MY ATTEMPT HOPE YOU ENJOY IT
HAIL IRISH METAL



OPENING RIFF

|-----------------------------------------------------------------|
|-----------------------------------------------------------------|
|----4-5-2-4-2---2-----------------------2-4-5-4-2---------4-4----|
|--2-----------5---2-4-5-2-4-2-----2-4-5-----------5-4-2-0-2-2----|
|------------------------------5-2--------------------------------|
|-----------------------------------------------------------------|


VERSE

|-----------------------------------------------------------------|
|-----------------------------------------------------------------|
|-----------------------------------------------------------------|
|----6-7-4-6-4---4----------------------4-6-7-6-4---------6-6-----|
|--4-----------7---4-6-7-4-6-4-2---4-6-7----------7-6-4-2-4-4-----|
|--------------------------------6--------------------------------|


|-----------------------------------------------------------------|
|-----------------------------------------------------------------|
|-----------------------------------------------------------------|
|--0-----0----5---0-----------------------------------------------|
|--0-----0----5---0-----------------------------------------------|
|--0-----0----5---0-----------------------------------------------|


|-------------------------------------------|
|-------------------------------------------|
|-------------------------------------------|
|--0----------------------------------------|
|--0--0-0--0-0--0-0-0---2-3-2-3-5-3-2-3-----
|--0--0-0--0-0--0-0-0---2-3-2-3-5-3-2-3-----


|-------------------------------------------|
|-------------------------------------------|
|-------------------------------------------|
|--2--2-2-2-2-2-2-2-4-5-4-5-7-5-4-5---------|
|--0--0-0-0-0-0-0-0-2-3-2-3-5-3-2-3---------|
|-------------------------------------------|

|--------------------------------------------------------------|
|--------------------------------------------------------------|
|--------------------------------------------------------------|
|--0-----------------------------------------------------------|
|--0-00-2-00-3-0-2-00-3-00-5-0-7-00-5-00-3-0-5-00-3-00-2-------|
|--0-00-2-00-3-0-2-00-3-00-5-0-7-00-5-00-3-0-5-00-3-00-2-------|


|------------------------------------------------------------------|
|------------------------------------------------------------------|
|------------------------------------------------------------------|
|------------------------------------------------------------------|
|--0-0-2-3-5-5-5-3-2-----0-2-3-3-3-2-0-------0-1-1-1-0---------0---|
|--------------------5-5---------------3-3-5-----------3-1-3-5---3-|

GUITAR PLAYS A FILL IN HERE AFTER EVERY FEW NOTES

|---------------------------------------------------------------------|
|---------------------------------------------------------------------|
|---------------------------------------------------------------------|
|------------2-3-5-2-----------0-1-3-1-0------------------------------|
|--0-0-2-3-5-------------0-2-3---------------0-1-3-5-6-5-3-111-555-3--|
|--------------------5-5---------------3-3-5---------------111-555-3--




|--------------------------------------------------------------------|
|--------------------------------------------------------------------|
|--------------------------------------------------------------------|
|--------------------------------------------------------------2-2---|
|--5--5--7--7-----222-3-2-0-222-3-2-0---5--5--7--7-----2-0-2-3-0-0---|
|--5--5--7--7---------------------------5--5--7--7-------------------|


|-------------------------------------------------------------------|
|-------------------------------------------------------------------|
|-------------------------------------------------------------------|
|-------------------------------------------------------------------|
|--0-0-2-2-44-5-4-2-44-5-4-2-0-0-2-2-4-2-4-5-2----------------------|
|--0-0-2-2-44-5-4-2-44-5-4-2-0-0-2-2-4-2-4-5-2----------------------|

THIS NEXT BIT IS EXTREMELY HARD TO FIGURE OUT SO THERES A BIT I CAN'T GET SORRY

|-----------------------------------------------------------|
|-----------------------------------------------------------|
|-----------------------------------------------------------|
|-----------------------------------------------------------|
|--3-0-----3-0-----0-00-1-2-3-3---1-0-00-2-3-5-5555-1-1111--|
|------333-----333--------------5---------------------------|

TABBED BY MARK STANLEY

Tap to rate this tab
# A B C D E F G H I J K L M N O P Q R S T U V W X Y Z