Song name
# A B C D E F G H I J K L M N O P Q R S T U V W X Y Z

Cruachan - Ride On tab

-------------------------------------------------------------------------------
                             Ride On - Cruachan
-------------------------------------------------------------------------------
Tabbed by: LostLegion
Email: cm.duffy@hotmail.com

Tuning: Standard: EADGBe

This is the solo that can be heard at 2:40 to 3:13   Enjoy Ultimate-Guitar!

e|---------------------------10---13-12-13--10-------------------------------|
B|------------------------10--------------------10--8~~----------------------|
G|-------7~~-----9p7h9-10---------------------------------10-9h10--8h10p8----|
D|----7-------------------------------------------------------------------7~~|
A|---------------------------------------------------------------------------|
E|---------------------------------------------------------------------------|

e|-------------------------10--13-12-13--10----------------------------------|
B|----------------------10------------------10--8~~-------------8-8b(10)-----|
G|-----7~~----9p7h9--10-------------------------------10--9h10----------7~~~-|
D|---7-----------------------------------------------------------------------|
A|---------------------------------------------------------------------------|
E|---------------------------------------------------------------------------|


************************************

| h   hammer-on
| p   pull-off
| ~   vibrato
| b   Bend

************************************
Tap to rate this tab
# A B C D E F G H I J K L M N O P Q R S T U V W X Y Z