Song name
# A B C D E F G H I J K L M N O P Q R S T U V W X Y Z

Crucial Dudes - Doubt tab

Crucial Dudes
Doubt
61 Penn

Tuning: Standard (EADGBe)

Please share this/post elsewhere, just please give me credit.
Transcribed by: Philip Tebby. email: capn.jazz@hotmail.com


These are just the chords for the rhythm guitar.
The rhythm is not indicated, you'll have to figure it out.

"Chasing after everything you do..."
*Palm mute the Em*
e- -----------------------------------------------------|
B- -----------------------------------------------------|
G- -----------------------------------------------------| 
D- --7---------2----------------------------------------|
A- --7---------2----------------------------------------|
E- --5---------0----------------------------------------|
  
       
"And after all the pain I felt from you..."
e- -----------------------------------------------------|
B- -----------------------------------------------------|
G- ------------66-99-44-99------------------------------| 
D- --7---------66-99-44-99------------------------------| x 2
A- --7---------44-77-22-77------------------------------|
E- --5--------------------------------------------------|


"You don't know what this feels like..."
*Palm mute the Em*
e- -----------------------------------------------------|
B- -----------------------------------------------------|
G- ------------66-99-44-99------------------------------| 
D- --2---------66-99-44-99------------------------------|
A- --2---------44-77-22-77------------------------------|
E- --0--------------------------------------------------|


"Tell myself it's everything thing I do..."
e- -----------------------------------------------------|
B- -----------------------------------------------------|
G- ------------66-99-44-99------------------------------|
D- --7---------66-99-44-99---7--------------------------|
A- --7---------44-77-22-77---7--------------------------|
E- --5-----------------------5--------------------------|


"But you destroy me..."
e- -----------------------------------------------------|
B- -----------------------------------------------------|
G- --4--6----------------------------------------------| 
D- --4--6--7-------------------------------------------| x4
A- --2--4--7-------------------------------------------|
E- --------5-------------------------------------------|


"I'll be fine..."
e- -----------------------------------------------------|
B- -----------------------------------------------------|
G- -----------------------------------------------------| let ring
D- --2--------2-----------------------------------------|
A- --2--------2-----------------------------------------|
E- --0--------0-----------------------------------------|

"Believe me I'm OK"
*palm mute these chords*
e- -----------------------------------------------------|
B- -----------------------------------------------------|
G- -----------------------------------------------------| 
D- --7--4-----------------------------------------------|
A- --7--4-----------------------------------------------|
E- --5--2-----------------------------------------------|


End on:
e -------|
B- ------|
G- --9---| 
D- --9---|
A- --7---|
E- ------|


Lyrics:
Chasing after everything you do
You don't know what this feels like
And after all the pain I felt from you
Chasing after everything you do
You don't know what this feels like
Tell myself it's everything I do
You don't know what this feels like

But you destroy me and complete me too
And I don't what I'd do without you
But as far as I can see
The only truth with you and me
Is that I think I'll still enjoy my life without you
And I'll be fine

Believe me, I'm okay
Believe me, I'll be fine
So stay away
So stay away 
Tap to rate this tab
# A B C D E F G H I J K L M N O P Q R S T U V W X Y Z