Song name
# A B C D E F G H I J K L M N O P Q R S T U V W X Y Z

Crucial Dudes - Mt Chill Youre Climbin chords

Crucial Dudes
Mt. Chill, You're Climbin'
61 Penn

Tuning: Standard (EADGBe)

Please share this/post elsewhere, just please give me credit.
Transcribed by: Philip Tebby. email: capn.jazz@hotmail.com


These are just the chords for the rhythm guitar.
The rhythm is not indicated, you'll have to figure it out. It's easy!

Tab starts at 0:10, this is the whole song:

e- -----------------------------------------------------|
B- -----------------------------------------------------|
G- -----------------------------------------------------| 
D- --2----7----2----7-----------------------------------|
A- --2----7----2----7-----------------------------------|
E- --0----5----0----5-----------------------------------|


e- -----------------------------------------------------|
B- -----------------------------------------------------|
G- -----------------------------------------------------| 
D- --2----7xx7----7xx7----------------------------------|
A- --2----7xx7----7xx7----------------------------------|
E- --0----5xx5----5xx5----------------------------------|


e- -----------------------------------------------------|
B- -----------------------------------------------------|
G- -----------------------------------------------------| 
D- --2----7xx7----7xx7----------------------------------|
A- --2----7xx7----7xx7----------------------------------|
E- --0----5xx5----5xx5----------------------------------|


End on:
e- -----------------------------------------------------|
B- -----------------------------------------------------|
G- -----------------------------------------------------| 
D- --2-2-2-2-2-2-2--------------------------------------|
A- --2-2-2-2-2-2-2--------------------------------------|
E- --0-0-0-0-0-0-0--------------------------------------|


Next, check out the tab for Doubt
Tap to rate this tab
 
# A B C D E F G H I J K L M N O P Q R S T U V W X Y Z