Song name
# A B C D E F G H I J K L M N O P Q R S T U V W X Y Z

Crucifucks - By The Door tab

Band: The Crucifucks
Song: By the Door
Album: The Crucifucks
Tabbed by Jon 
Main Riff
|-12-----12-----|
|---11-11---11--|
|---------------|
|---------------|
|---------------|
|---------------|

Repeat this a lot.  After Doc says, “The big hand is pointing at you!”  A second guitar 
the G string a few times.


First Bridge
|-12-----12-----12--/15—15-----16—16-----16--|
|---11-11---11--------------14--------15-----|
|--------------------------------------------|
|--------------------------------------------|
|--------------------------------------------|
|--------------------------------------------|


|-12--10--9--7--10--9—10--9----12---15---16---0---15-16-15-16-|
|-11--9---8--6--9---8-9---8----11---14---15---0---14-15-14-15-|
|-------------------------------------------------------------|
|-------------------------------------------------------------|
|-------------------------------------------------------------|
|-------------------------------------------------------------|

|-12---16-15---18---0---------------------------------|
|-11---15-14---17---0---12---10---7---4---3---/12---8-|
|-----------------------12---10---7---4---3---/12---8-|
|-----------------------12---10---7---4---3---/12---8-|
|-----------------------------------------------------|
|-----------------------------------------------------|


Second and third bridge
|-12-----12-----12--/15—15-15----16—--15-15-|
|---11-11---11------/14-14-14----15---14-14-|
|-------------------------------------------|
|-------------------------------------------|
|-------------------------------------------|
|-------------------------------------------|

|-12--10--9--7--10--9—10--9----12---15---16---0---15-16-15-16---15-16|
|-11--9---8--6--9---8-9---8----11---14---15---0---14-15-14-15---14-15|
|--------------------------------------------------------------------|
|--------------------------------------------------------------------|
|--------------------------------------------------------------------|
|--------------------------------------------------------------------|

               Gradually Bend these notes up a half step
                           |             |
                           |             |
                          \               /
|-12-15-16-12-15-16-12-15-18-18-18-18-18-18-|
|-11-14-15-11-14-15-11-14-17-17-17-17-17-17-|
|-------------------------------------------|
|-------------------------------------------|
|-------------------------------------------|
|-------------------------------------------|

|-------------------|
|-9---8---7---6---5-|
|-9---8---7---6---5-|
|-9---8---7---6---5-|
|-------------------|
|-------------------|
Tap to rate this tab
# A B C D E F G H I J K L M N O P Q R S T U V W X Y Z