Guitaretab - guitar tabs
Song name
# A B C D E F G H I J K L M N O P Q R S T U V W X Y Z

Crucifucks - Annual Report tab

Band: The Crucifucks
Song:Annual Report
Album: The Crucifucks
Tabbed by Jon 
Key:
/=Slide Up
\=Slide Down
[ Tab from: http://www.guitaretab.com/c/crucifucks/74322.html ]
Intro/Verse
|------------------------------|
|------------------------------|
|-6----9----4--6--4--6--4------|
|-7----10---5--7--5--7--5------|
|-7----10---5--7--5--7--5------|
|-5----8----3--5--5--5--3------|
You can figure out the rhythm and how many times to hit each chord.

Chorus
|-----------------|
|-----------------|
|-1----2----4-----|
|-2----3----5-----|
|-2----3----5-----|
|-0----1----3-----|

Bridge         x3
|--------------||------------------|
|-------------o||------------------|
|--------------||------------------|
|--------------||------------------|
|-------------o||------------------|
|-0--0--0/12\--||-8-8-7-7-5-5-3-3--|

Related for Annual Report tab
Advertisement will be closed in 10 seconds