Song name
# A B C D E F G H I J K L M N O P Q R S T U V W X Y Z

Crucifucks - You Give Me The Creeps tab

Help us improve GuitareTab! Take a short survey!
Band: The Crucifucks
Song: You Give Me the Creeps
Album: The Crucifucks
Tabbed by Jon 

Main Part:
|---------------------------------|
|---------------------------------|
|-2----5--7--6--7--6--5-----------|
|-3----6--8--6--8--7--6-----------|
|-3----6--8--6--8--7--6-----------|
|-1----4--6--4--6--5--4-----------|
  ^
Strum

Part that shifts up:
|---------------------------------|
|-3----6--8--6--8--7--6-----------|
|-3----6--8--6--8--7--6-----------|
|-3----6--8--6--8--7--6-----------|
|-1----4--6--4--6--5--4-----------|
|---------------------------------|
  ^
Strum


Related for You Give Me The Creeps tab