Song name
# A B C D E F G H I J K L M N O P Q R S T U V W X Y Z

Crudamata - No Se tab

Title: No se
Artist: Crudamata
Album: El mundo da vueltas
Copyright: 2010
Tempo = 159
Steel Guitar

Legend
L - tied note
x - dead note
h - hammer on/pull off
b - bend
s - slide
~ - vibrato
g - ghost note
> - accentuated note
t - trill
M - palm mute
. - staccato
P - popping (bass)
S - slapping (bass)
+ - tapping
W - wide vibrato
< - fade in
w - whammy bar
= - tremolo picking
v - brush up
^ - brush down
V - pick stroke up
n - pick stroke down


E |----------|----------|----------|--3----|--3----|-------|--0----|--3----|
B |----------|----------|----------|--3----|--3----|--0----|--1----|--3----|
G |--5-------|--5-------|--5-------|-------|-------|--0----|--0----|-------|
D |--5--5----|--5--5----|--5-------|--0----|--0----|--2----|--2----|--0----|
A |--3--5----|--3--5----|--3-------|--2----|--2----|--2----|--3----|--2----|
E |-----3----|-----3----|----------|--3----|--3----|--0----|-------|--3----|


--3----|-------|--0----|----------------|----------------|----------------|
--3----|--0----|--1----|----------------|----------------|----------------|
-------|--0----|--0----|--7--7--7--7----|--7--7--7--7----|--4--4--4--4----|
--0----|--2----|--2----|--5--5--5--5----|--5--5--5--5----|--2--2--2--2----|
--2----|--2----|--3----|----------------|----------------|----------------|
--3----|--0----|-------|----------------|----------------|----------------|


----------------|----------------|----------------|----------------|
----------------|----------------|----------------|----------------|
--5--5--5--5----|--7--7--7--7----|--7--7--7--7----|--4--4--4--4----|
--5--5--5--5----|--5--5--5--5----|--5--5--5--5----|--2--2--2--2----|
--3--3--3--3----|----------------|----------------|----------------|
----------------|----------------|----------------|----------------|


----------------|----------------------------|----------------------------|
----------------|----------------------------|----------------------------|
--5--5--5--5----|--------7-----------7-------|--------7-----------7-------|
--5--5--5--5----|--5--5--------5--5----------|--5--5--------5--5----------|
--3--3--3--3----|----------------------------|----------------------------|
----------------|----------------------------|----------------------------|


----------------------------|-------|----------------------------|
----------------------------|-------|----------------------------|
--------4-----------4-------|--5----|--------7-----------7-------|
--2--2--------2--2----------|--5----|--5--5--------5--5----------|
----------------------------|--3----|----------------------------|
----------------------------|-------|----------------------------|


----------------------------|----------------------------|-------|
----------------------------|----------------------------|-------|
--------7-----------7-------|--------4-----------4-------|--5----|
--5--5--------5--5----------|--2--2--------2--2----------|--5----|
----------------------------|----------------------------|--3----|
----------------------------|----------------------------|-------|


----------------|----------------|----------------|----------------|
----------------|----------------|----------------|----------------|
--7--7--7--7----|--7--7--7--7----|--5--5--5--5----|--5--5--5--5----|
--7--7--7--7----|--7--7--7--7----|--5--5--5--5----|--5--5--5--5----|
--5--5--5--5----|--5--5--5--5----|--3--3--3--3----|--3--3--3--3----|
----------------|----------------|----------------|----------------|


----------------|----------------|----------------|----------------|----------|
----------------|----------------|----------------|----------------|----------|
--7--7--7--7----|--7--7--7--7----|--5--5--5--5----|--5--5--5--5----|--5-------|
--7--7--7--7----|--7--7--7--7----|--5--5--5--5----|--5--5--5--5----|--5--5----|
--5--5--5--5----|--5--5--5--5----|--3--3--3--3----|--3--3--3--3----|--3--5----|
----------------|----------------|----------------|----------------|-----3----|


----------|----------------|----------------|----------------|----------------|
----------|----------------|----------------|----------------|----------------|
--5-------|--5-------------|--5--5--5--5----|--7--7--7--7----|----------------|
--5--5----|--5--5--5--5----|--5--5--5--5----|--7--7--7--7----|--5--5--5--5----|
--3--5----|--3--5--5--5----|--3--3--3--3----|--5--5--5--5----|--5--5--5--5----|
-----3----|-----3--3--3----|----------------|----------------|--3--3--3--3----|


----------------|----------------|----------------|----------------|
----------------|----------------|----------------|----------------|
--5--5--5--5----|--7--7--7--7----|--7--7--7--7----|--7--7--7--7----|
--5--5--5--5----|--7--7--7--7----|--5--5--5--5----|--5--5--5--5----|
--3--3--3--3----|--5--5--5--5----|----------------|----------------|
----------------|----------------|----------------|----------------|


----------------|----------------|----------------|----------------|
----------------|----------------|----------------|----------------|
--4--4--4--4----|--5--5--5--5----|--7--7--7--7----|--7--7--7--7----|
--2--2--2--2----|--5--5--5--5----|--5--5--5--5----|--5--5--5--5----|
----------------|--3--3--3--3----|----------------|----------------|
----------------|----------------|----------------|----------------|


----------------|----------------|----------------------------|
----------------|----------------|----------------------------|
--4--4--4--4----|--5--5--5--5----|--------7-----------7-------|
--2--2--2--2----|--5--5--5--5----|--5--5--------5--5----------|
----------------|--3--3--3--3----|----------------------------|
----------------|----------------|----------------------------|


----------------------------|----------------------------|-------|
----------------------------|----------------------------|-------|
--------7-----------7-------|--------4-----------4-------|--5----|
--5--5--------5--5----------|--2--2--------2--2----------|--5----|
----------------------------|----------------------------|--3----|
----------------------------|----------------------------|-------|


----------------------------|----------------------------|
----------------------------|----------------------------|
--------7-----------7-------|--------7-----------7-------|
--5--5--------5--5----------|--5--5--------5--5----------|
----------------------------|----------------------------|
----------------------------|----------------------------|


----------------------------|-------|----------------|----------------|
----------------------------|-------|----------------|----------------|
--------4-----------4-------|--5----|--7--7--7--7----|--7--7--7--7----|
--2--2--------2--2----------|--5----|--7--7--7--7----|--7--7--7--7----|
----------------------------|--3----|--5--5--5--5----|--5--5--5--5----|
----------------------------|-------|----------------|----------------|


----------------|----------------|----------------|----------------|
----------------|----------------|----------------|----------------|
--5--5--5--5----|--5--5--5--5----|--7--7--7--7----|--7--7--7--7----|
--5--5--5--5----|--5--5--5--5----|--7--7--7--7----|--7--7--7--7----|
--3--3--3--3----|--3--3--3--3----|--5--5--5--5----|--5--5--5--5----|
----------------|----------------|----------------|----------------|


----------------|----------------|----------|----------|----------------|
----------------|----------------|----------|----------|----------------|
--5--5--5--5----|--5--5--5--5----|--5-------|--5-------|--5-------------|
--5--5--5--5----|--5--5--5--5----|--5--5----|--5--5----|--5--5--5--5----|
--3--3--3--3----|--3--3--3--3----|--3--5----|--3--5----|--3--5--5--5----|
----------------|----------------|-----3----|-----3----|-----3--3--3----|


----------------|----------------|----------------|----------------|
----------------|----------------|----------------|----------------|
--5--5--5--5----|--7--7--7--7----|----------------|--5--5--5--5----|
--5--5--5--5----|--7--7--7--7----|--5--5--5--5----|--5--5--5--5----|
--3--3--3--3----|--5--5--5--5----|--5--5--5--5----|--3--3--3--3----|
----------------|----------------|--3--3--3--3----|----------------|


----------------|----------------|----------------|----------------|
----------------|----------------|----------------|----------------|
--7--7--7--7----|--7--7--7--7----|--7--7--7--7----|--4--4--4--4----|
--7--7--7--7----|--5--5--5--5----|--5--5--5--5----|--2--2--2--2----|
--5--5--5--5----|----------------|----------------|----------------|
----------------|----------------|----------------|----------------|


----------------|----------------|----------------|----------------|
----------------|----------------|----------------|----------------|
--5--5--5--5----|--7--7--7--7----|--7--7--7--7----|--4--4--4--4----|
--5--5--5--5----|--5--5--5--5----|--5--5--5--5----|--2--2--2--2----|
--3--3--3--3----|----------------|----------------|----------------|
----------------|----------------|----------------|----------------|


----------------|----------------------------|----------------------------|
----------------|----------------------------|----------------------------|
--5--5--5--5----|--------7-----------7-------|--------7-----------7-------|
--5--5--5--5----|--5--5--------5--5----------|--5--5--------5--5----------|
--3--3--3--3----|----------------------------|----------------------------|
----------------|----------------------------|----------------------------|


----------------------------|-------|----------------------------|
----------------------------|-------|----------------------------|
--------4-----------4-------|--5----|--------7-----------7-------|
--2--2--------2--2----------|--5----|--5--5--------5--5----------|
----------------------------|--3----|----------------------------|
----------------------------|-------|----------------------------|


----------------------------|----------------------------|-------|
----------------------------|----------------------------|-------|
--------7-----------7-------|--------4-----------4-------|--5----|
--5--5--------5--5----------|--2--2--------2--2----------|--5----|
----------------------------|----------------------------|--3----|
----------------------------|----------------------------|-------|


----------------|----------------|----------------|----------------|
----------------|----------------|----------------|----------------|
--7--7--7--7----|--7--7--7--7----|--5--5--5--5----|--5--5--5--5----|
--7--7--7--7----|--7--7--7--7----|--5--5--5--5----|--5--5--5--5----|
--5--5--5--5----|--5--5--5--5----|--3--3--3--3----|--3--3--3--3----|
----------------|----------------|----------------|----------------|


----------------|----------------|----------------|----------------|----------|
----------------|----------------|----------------|----------------|----------|
--7--7--7--7----|--7--7--7--7----|--5--5--5--5----|--5--5--5--5----|--5-------|
--7--7--7--7----|--7--7--7--7----|--5--5--5--5----|--5--5--5--5----|--5--5----|
--5--5--5--5----|--5--5--5--5----|--3--3--3--3----|--3--3--3--3----|--3--5----|
----------------|----------------|----------------|----------------|-----3----|


----------|----------------|----------------|----------------|----------------|
----------|----------------|----------------|----------------|----------------|
--5-------|--5-------------|--5--5--5--5----|--7--7--7--7----|----------------|
--5--5----|--5--5--5--5----|--5--5--5--5----|--7--7--7--7----|--5--5--5--5----|
--3--5----|--3--5--5--5----|--3--3--3--3----|--5--5--5--5----|--5--5--5--5----|
-----3----|-----3--3--3----|----------------|----------------|--3--3--3--3----|


----------------|----------------|----------------|----------------|
----------------|----------------|----------------|----------------|
--5--5--5--5----|--7--7--7--7----|-----------7----|----------------|
--5--5--5--5----|--7--7--7--7----|-----9----------|-----9-----9----|
--3--3--3--3----|--5--5--5--5----|--10M---10------|--10M---10------|
----------------|----------------|----------------|----------------|


----------------|----------------||
----------------|----------------||
-----------7----|----------------||
-----9----------|-----9-----9----||
--10M---10------|--10M---10------||
----------------|----------------||

Tap to rate this tab
 
# A B C D E F G H I J K L M N O P Q R S T U V W X Y Z