Crudamata - Tengo Que Morir tab

Title: Tengo k morir
Artist: Crudamata
Album: El mundo da vueltas
Copyright: 2010
Tempo = 218
Steel Guitar

Legend
L - tied note
x - dead note
h - hammer on/pull off
b - bend
s - slide
~ - vibrato
g - ghost note
> - accentuated note
t - trill
M - palm mute
. - staccato
P - popping (bass)
S - slapping (bass)
+ - tapping
W - wide vibrato
< - fade in
w - whammy bar
= - tremolo picking
v - brush up
^ - brush down
V - pick stroke up
n - pick stroke down


E |-------------------------------------------------------------------------|
B |-------------------------------------------------------------------------|
G |-------------------------------------------------------------------------|
D |-------------------------------------------------------------------------|
A |--3--3--3--8--3--3--7--3-----3-----5-----3-----7-----3-----5-----3-------|
E |-------------------------------------------------------------------------|


-------------------------------------|----------------------------|
-------------------------------------|----------------------------|
-------------------------------------|----------------------------|
-------------------------------------|----------------------------|
-------------------------------------|-----------------------2----|
--5-----5-----5-----8--7-----0-------|--3--3--5--0--1--3--5-------|


-------------------------------------------------------------------------|
-------------------------------------------------------------------------|
-------------------------------------------------------------------------|
-------------------------------------------------------------------------|
--3--3--3--8--3--3--7--3-----3-----5-----3-----7-----3-----5-----3-------|
-------------------------------------------------------------------------|


-------------------------------------|----------------------------|
-------------------------------------|----------------------------|
-------------------------------------|----------------------------|
-------------------------------------|----------------------------|
-------------------------------------|-----------------------2----|
--5-----5-----5-----8--7-----0-------|--3--3--5--0--1--3--5-------|


-------------------------------------------------------------------------|
-------------------------------------------------------------------------|
-------------------------------------------------------------------------|
-------------------------------------------------------------------------|
--3--3--3--8--3--3--7--3-----3-----5-----3-----7-----3-----5-----3-------|
-------------------------------------------------------------------------|


-------------------------------------|----------------------------|
-------------------------------------|----------------------------|
-------------------------------------|----------------------------|
-------------------------------------|----------------------------|
-------------------------------------|-----------------------2----|
--5-----5-----5-----8--7-----0-------|--3--3--5--0--1--3--5-------|


-------------------------------------------------------------------------|
-------------------------------------------------------------------------|
-------------------------------------------------------------------------|
-------------------------------------------------------------------------|
--3--3--3--8--3--3--7--3-----3-----5-----3-----7-----3-----5-----3-------|
-------------------------------------------------------------------------|


-------------------------------------|----------------------------|
-------------------------------------|----------------------------|
-------------------------------------|----------------------------|
-------------------------------------|----------------------------|
-------------------------------------|-----------------------2----|
--5-----5-----5-----8--7-----0-------|--3--3--5--0--1--3--5-------|


-------------------|----------------|----------------|----------------|
-------------------|----------------|----------------|----------------|
--5--5--5--5--5----|--5--5--5--5----|----------------|----------------|
--5--5--5--5--5----|--5--5--5--5----|--7--7--7--7----|--5--5--5--5----|
--3--3--3--3--3----|--3--3--3--3----|--7--7--7--7----|--5--5--5--5----|
-------------------|----------------|--5--5--5--5----|--3--3--3--3----|


-------------------|----------------|----------------|----------------|
-------------------|----------------|----------------|----------------|
--5--5--5--5--5----|--5--5--5--5----|----------------|----------------|
--5--5--5--5--5----|--5--5--5--5----|--7--7--7--7----|--5--5--5--5----|
--3--3--3--3--3----|--3--3--3--3----|--7--7--7--7----|--5--5--5--5----|
-------------------|----------------|--5--5--5--5----|--3--3--3--3----|


-------------------|----------------|----------------|----------------|
-------------------|----------------|----------------|----------------|
--5M-5--5--5--5----|--5--5--5--5----|----------------|----------------|
--5M-5--5--5--5----|--5--5--5--5----|--7--7--7--7----|--5--5--5--5----|
--3M-3--3--3--3----|--3--3--3--3----|--7--7--7--7----|--5--5--5--5----|
-------------------|----------------|--5--5--5--5----|--3--3--3--3----|


-------------------|----------------|----------------|----------------|
-------------------|----------------|----------------|----------------|
--5M-5--5--5--5----|--5--5--5--5----|----------------|----------------|
--5M-5--5--5--5----|--5--5--5--5----|--7--7--7--7----|--5--5--5--5----|
--3M-3--3--3--3----|--3--3--3--3----|--7--7--7--7----|--5--5--5--5----|
-------------------|----------------|--5--5--5--5----|--3--3--3--3----|


-------------|-------------|-------------|-------------|
-------------|-------------|-------------|-------------|
--5----------|-------------|--5----------|-------------|
--5--7--5----|--7--5--3----|--5--7--5----|--7--5--3----|
--3--7--5----|--7--5--3----|--3--7--5----|--7--5--3----|
-----5--3----|--5--3--1----|-----5--3----|--5--3--1----|


-------------------------------------------------------------------------|
-------------------------------------------------------------------------|
-------------------------------------------------------------------------|
-------------------------------------------------------------------------|
--3--3--3--8--3--3--7--3-----3-----5-----3-----7-----3-----5-----3-------|
-------------------------------------------------------------------------|


-------------------------------------|----------------------------|
-------------------------------------|----------------------------|
-------------------------------------|----------------------------|
-------------------------------------|----------------------------|
-------------------------------------|-----------------------2----|
--5-----5-----5-----8--7-----0-------|--3--3--5--0--1--3--5-------|


-------------------------------------------------------------------------|
-------------------------------------------------------------------------|
-------------------------------------------------------------------------|
-------------------------------------------------------------------------|
--3--3--3--8--3--3--7--3-----3-----5-----3-----7-----3-----5-----3-------|
-------------------------------------------------------------------------|


-------------------------------------|----------------------------|
-------------------------------------|----------------------------|
-------------------------------------|----------------------------|
-------------------------------------|----------------------------|
-------------------------------------|-----------------------2----|
--5-----5-----5-----8--7-----0-------|--3--3--5--0--1--3--5-------|


-------------------|----------------|----------------|----------------|
-------------------|----------------|----------------|----------------|
--5--5--5--5--5----|--5--5--5--5----|----------------|----------------|
--5--5--5--5--5----|--5--5--5--5----|--7--7--7--7----|--5--5--5--5----|
--3--3--3--3--3----|--3--3--3--3----|--7--7--7--7----|--5--5--5--5----|
-------------------|----------------|--5--5--5--5----|--3--3--3--3----|


-------------------|----------------|----------------|----------------|
-------------------|----------------|----------------|----------------|
--5--5--5--5--5----|--5--5--5--5----|----------------|----------------|
--5--5--5--5--5----|--5--5--5--5----|--7--7--7--7----|--5--5--5--5----|
--3--3--3--3--3----|--3--3--3--3----|--7--7--7--7----|--5--5--5--5----|
-------------------|----------------|--5--5--5--5----|--3--3--3--3----|


-------------------|----------------|----------------|----------------|
-------------------|----------------|----------------|----------------|
--5M-5--5--5--5----|--5--5--5--5----|----------------|----------------|
--5M-5--5--5--5----|--5--5--5--5----|--7--7--7--7----|--5--5--5--5----|
--3M-3--3--3--3----|--3--3--3--3----|--7--7--7--7----|--5--5--5--5----|
-------------------|----------------|--5--5--5--5----|--3--3--3--3----|


-------------------|----------------|----------------|----------------|
-------------------|----------------|----------------|----------------|
--5M-5--5--5--5----|--5--5--5--5----|----------------|----------------|
--5M-5--5--5--5----|--5--5--5--5----|--7--7--7--7----|--5--5--5--5----|
--3M-3--3--3--3----|--3--3--3--3----|--7--7--7--7----|--5--5--5--5----|
-------------------|----------------|--5--5--5--5----|--3--3--3--3----|


-------------|-------------|-------------|-------------|
-------------|-------------|-------------|-------------|
--5----------|-------------|--5----------|-------------|
--5--7--5----|--7--5--3----|--5--7--5----|--7--5--3----|
--3--7--5----|--7--5--3----|--3--7--5----|--7--5--3----|
-----5--3----|--5--3--1----|-----5--3----|--5--3--1----|


-------------------------------------------------------------------------|
-------------------------------------------------------------------------|
-------------------------------------------------------------------------|
-------------------------------------------------------------------------|
--3--3--3--8--3--3--7--3-----3-----5-----3-----7-----3-----5-----3-------|
-------------------------------------------------------------------------|


-------------------------------------|----------------------------|
-------------------------------------|----------------------------|
-------------------------------------|----------------------------|
-------------------------------------|----------------------------|
-------------------------------------|-----------------------2----|
--5-----5-----5-----8--7-----0-------|--3--3--5--0--1--3--5-------|


-------------------------------------------------------------------------|
-------------------------------------------------------------------------|
-------------------------------------------------------------------------|
-------------------------------------------------------------------------|
--3--3--3--8--3--3--7--3-----3-----5-----3-----7-----3-----5-----3-------|
-------------------------------------------------------------------------|


-------------------------------------|----------------------------|
-------------------------------------|----------------------------|
-------------------------------------|----------------------------|
-------------------------------------|----------------------------|
-------------------------------------|-----------------------2----|
--5-----5-----5-----8--7-----0-------|--3--3--5--0--1--3--5-------|


-------------------|----------------|----------------|----------------|
-------------------|----------------|----------------|----------------|
--5--5--5--5--5----|--5--5--5--5----|----------------|----------------|
--5--5--5--5--5----|--5--5--5--5----|--7--7--7--7----|--5--5--5--5----|
--3--3--3--3--3----|--3--3--3--3----|--7--7--7--7----|--5--5--5--5----|
-------------------|----------------|--5--5--5--5----|--3--3--3--3----|


-------------------|----------------|----------------|----------------|
-------------------|----------------|----------------|----------------|
--5--5--5--5--5----|--5--5--5--5----|----------------|----------------|
--5--5--5--5--5----|--5--5--5--5----|--7--7--7--7----|--5--5--5--5----|
--3--3--3--3--3----|--3--3--3--3----|--7--7--7--7----|--5--5--5--5----|
-------------------|----------------|--5--5--5--5----|--3--3--3--3----|


-------------------|----------------|----------------|----------------|
-------------------|----------------|----------------|----------------|
--5M-5--5--5--5----|--5--5--5--5----|----------------|----------------|
--5M-5--5--5--5----|--5--5--5--5----|--7--7--7--7----|--5--5--5--5----|
--3M-3--3--3--3----|--3--3--3--3----|--7--7--7--7----|--5--5--5--5----|
-------------------|----------------|--5--5--5--5----|--3--3--3--3----|


-------------------|----------------|----------------|----------------|
-------------------|----------------|----------------|----------------|
--5M-5--5--5--5----|--5--5--5--5----|----------------|----------------|
--5M-5--5--5--5----|--5--5--5--5----|--7--7--7--7----|--5--5--5--5----|
--3M-3--3--3--3----|--3--3--3--3----|--7--7--7--7----|--5--5--5--5----|
-------------------|----------------|--5--5--5--5----|--3--3--3--3----|


-------------|-------------|-------------|-------------|----------------|
-------------|-------------|-------------|-------------|----------------|
--5----------|-------------|--5----------|-------------|--5--5--5--5----|
--5--7--5----|--7--5--3----|--5--7--5----|--7--5--3----|--5--5--5--5----|
--3--7--5----|--7--5--3----|--3--7--5----|--7--5--3----|--3--3--3--3----|
-----5--3----|--5--3--1----|-----5--3----|--5--3--1----|----------------|


----------------|----------------|----------------|----------------|
----------------|----------------|----------------|----------------|
--5--5--5--5----|--5--5--5--5----|--5--5--5--5----|--5--5--5--5----|
--5--5--5--5----|--5--5--5--5----|--5--5--5--5----|--5--5--5--5----|
--3--3--3--3----|--3--3--3--3----|--3--3--3--3----|--3--3--3--3----|
----------------|----------------|----------------|----------------|


----------------|----------------|----------------|----------------|
----------------|----------------|----------------|----------------|
--5--5--5--5----|--5--5--5--5----|--5--5--5--5----|--5--5--5--5----|
--5--5--5--5----|--5--5--5--5----|--5--5--5--5----|--5--5--5--5----|
--3--3--3--3----|--3--3--3--3----|--3--3--3--3----|--3--3--3--3----|
----------------|----------------|----------------|----------------|


----------------|----------------|----------------|----------------|
----------------|----------------|----------------|----------------|
--5--5--5--5----|--5--5--5--5----|--5--5--5--5----|--5--5--5--5----|
--5--5--5--5----|--5--5--5--5----|--5--5--5--5----|--5--5--5--5----|
--3--3--3--3----|--3--3--3--3----|--3--3--3--3----|--3--3--3--3----|
----------------|----------------|----------------|----------------|


----------------|----------------|----------------|----------------|
----------------|----------------|----------------|----------------|
--5--5--5--5----|--5--5--5--5----|--5--5--5--5----|--5--5--5--5----|
--5--5--5--5----|--5--5--5--5----|--5--5--5--5----|--5--5--5--5----|
--3--3--3--3----|--3--3--3--3----|--3--3--3--3----|--3--3--3--3----|
----------------|----------------|----------------|----------------|


----------------|-------------|-------------|-------------|-------------|
----------------|-------------|-------------|-------------|-------------|
--5--5--5--5----|--5----------|-------------|--5----------|-------------|
--5--5--5--5----|--5--7--5----|--7--5--3----|--5--7--5----|--7--5--3----|
--3--3--3--3----|--3--7--5----|--7--5--3----|--3--7--5----|--7--5--3----|
----------------|-----5--3----|--5--3--1----|-----5--3----|--5--3--1----|


-------------------------------------------------------------------------|
-------------------------------------------------------------------------|
-------------------------------------------------------------------------|
-------------------------------------------------------------------------|
--3--3--3--8--3--3--7--3-----3-----5-----3-----7-----3-----5-----3-------|
-------------------------------------------------------------------------|


-------------------------------------|----------------------------|
-------------------------------------|----------------------------|
-------------------------------------|----------------------------|
-------------------------------------|----------------------------|
-------------------------------------|-----------------------2----|
--5-----5-----5-----8--7-----0-------|--3--3--5--0--1--3--5-------|


-------------------------------------------------------------------------|
-------------------------------------------------------------------------|
-------------------------------------------------------------------------|
-------------------------------------------------------------------------|
--3--3--3--8--3--3--7--3-----3-----5-----3-----7-----3-----5-----3-------|
-------------------------------------------------------------------------|


-------------------------------------|----------------------------|-------||
-------------------------------------|----------------------------|-------||
-------------------------------------|----------------------------|--5----||
-------------------------------------|----------------------------|--5----||
-------------------------------------|-----------------------2----|--3----||
--5-----5-----5-----8--7-----0-------|--3--3--5--0--1--3--5-------|-------||

Tap to rate this tab
 
# A B C D E F G H I J K L M N O P Q R S T U V W X Y Z