Song name
# A B C D E F G H I J K L M N O P Q R S T U V W X Y Z

Crudamata - Mienteme tab

Title: Mienteme
Artist: Crudamata
Album: El mundo da vueltas
Copyright: 2010
Tempo = 171
Steel Guitar

Legend
L - tied note
x - dead note
h - hammer on/pull off
b - bend
s - slide
~ - vibrato
g - ghost note
> - accentuated note
t - trill
M - palm mute
. - staccato
P - popping (bass)
S - slapping (bass)
+ - tapping
W - wide vibrato
< - fade in
w - whammy bar
= - tremolo picking
v - brush up
^ - brush down
V - pick stroke up
n - pick stroke down


E |----------------|----------------|----------------|
B |----------------|----------------|----------------|
G |--9--9--9-------|--9--9--9-------|--9--9--9-------|
D |--7--7--7h-9----|--7--7--7h-9----|--7--7--7h-9----|
A |--0--0--0--0----|--0--0--0--0----|--0--0--0--0----|
E |----------------|----------------|----------------|


----------------------------|----------------|----------------|----------------|
----------------------------|----------------|----------------|----------------|
--8-----8-----8--8--7--6----|--9--9--9-------|--9--9--9-------|--9--9--9-------|
--8-----8-----8--8--7--6----|--7--7--7h-9----|--7--7--7h-9----|--7--7--7h-9----|
----------------------------|--0--0--0--0----|--0--0--0--0----|--0--0--0--0----|
----------------------------|----------------|----------------|----------------|


----------------------------|----------------|----------------|----------------|
----------------------------|----------------|----------------|----------------|
--8-----8-----8--8--7--6----|--9--9--9-------|--9--9--9-------|--9--9--9-------|
--8-----8-----8--8--7--6----|--7--7--7h-9----|--7--7--7h-9----|--7--7--7h-9----|
----------------------------|--0--0--0--0----|--0--0--0--0----|--0--0--0--0----|
----------------------------|----------------|----------------|----------------|


----------------------------|----------------|----------------|----------------|
----------------------------|----------------|----------------|----------------|
--8-----8-----8--8--7--6----|--9--9--9-------|--9--9--9-------|--9--9--9-------|
--8-----8-----8--8--7--6----|--7--7--7h-9----|--7--7--7h-9----|--7--7--7h-9----|
----------------------------|--0--0--0--0----|--0--0--0--0----|--0--0--0--0----|
----------------------------|----------------|----------------|----------------|


----------------------------|----------------|----------------|----------------|
----------------------------|----------------|----------------|----------------|
--8-----8-----8--8--7--6----|--9--9--9-------|--9--9--9-------|--9--9--9-------|
--8-----8-----8--8--7--6----|--7--7--7h-9----|--7--7--7h-9----|--7--7--7h-9----|
----------------------------|--0--0--0--0----|--0--0--0--0----|--0--0--0--0----|
----------------------------|----------------|----------------|----------------|


----------------------------|----------------|----------------|----------------|
----------------------------|----------------|----------------|----------------|
--8-----8-----8--8--7--6----|--9--9--9-------|--9--9--9-------|--9M-9--9-------|
--8-----8-----8--8--7--6----|--7--7--7h-9----|--7--7--7h-9----|--7--7--7h-9----|
----------------------------|--0M-0--0--0----|--0M-0--0--0----|--0--0--0--0----|
----------------------------|----------------|----------------|----------------|


----------------------------|----------------|----------------|----------------|
----------------------------|----------------|----------------|----------------|
--8-----8-----8--8--7--6----|--9--9--9-------|--9--9--9-------|--9--9--9-------|
--8-----8-----8--8--7--6----|--7--7--7h-9----|--7--7--7h-9----|--7--7--7h-9----|
----------------------------|--0M-0--0--0----|--0M-0--0--0----|--0M-0--0--0----|
----------------------------|----------------|----------------|----------------|


----------------------------|----------------|----------------|----------------|
----------------------------|----------------|----------------|----------------|
--8-----8-----8--8--7--6----|--9--9--9-------|--9--9--9-------|--9--9--9-------|
--8-----8-----8--8--7--6----|--7--7--7h-9----|--7--7--7h-9----|--7--7--7h-9----|
----------------------------|--0--0--0--0----|--0--0--0--0----|--0--0--0--0----|
----------------------------|----------------|----------------|----------------|


----------------------------|----------------|----------------|----------------|
----------------------------|----------------|----------------|----------------|
--8-----8-----8--8--7--6----|--9--9--9-------|--9--9--9-------|--9--9--9-------|
--8-----8-----8--8--7--6----|--7--7--7h-9----|--7--7--7h-9----|--7--7--7h-9----|
----------------------------|--0--0--0--0----|--0--0--0--0----|--0--0--0--0----|
----------------------------|----------------|----------------|----------------|


----------------------------|-------------------------------|
----------------------------|-------------------------------|
--8-----8-----8--8--7--6----|--7-----7-----5--7--5--2-------|
--8-----8-----8--8--7--6----|--7-----7-----5--7--5--2-------|
----------------------------|--5-----5-----3--5--3--0-------|
----------------------------|-------------------------------|


-------------------------------|-------------------------------|
-------------------------------|-------------------------------|
--7-----7-----5--7--5--2-------|--7-----7-----5--7--5--2-------|
--7-----7-----5--7--5--2-------|--7-----7-----5--7--5--2-------|
--5-----5-----3--5--3--0-------|--5-----5-----3--5--3--0-------|
-------------------------------|-------------------------------|


-------------------------------|----------------|----------------|
-------------------------------|----------------|----------------|
--7-----7-----5--7--5--2-------|--9--9--9-------|--9--9--9-------|
--7-----7-----5--7--5--2-------|--7--7--7h-9----|--7--7--7h-9----|
--5M----5-----3--5--3--0-------|--0--0--0--0----|--0--0--0--0----|
-------------------------------|----------------|----------------|


----------------|----------------------------|----------------|----------------|
----------------|----------------------------|----------------|----------------|
--9--9--9-------|--8-----8-----8--8--7--6----|--9--9--9-------|--9--9--9-------|
--7--7--7h-9----|--8-----8-----8--8--7--6----|--7--7--7h-9----|--7--7--7h-9----|
--0--0--0--0----|----------------------------|--0--0--0--0----|--0--0--0--0----|
----------------|----------------------------|----------------|----------------|


----------------|----------------------------|----------------|----------------|
----------------|----------------------------|----------------|----------------|
--9--9--9-------|--8-----8-----8--8--7--6----|--9--9--9-------|--9--9--9-------|
--7--7--7h-9----|--8-----8-----8--8--7--6----|--7--7--7h-9----|--7--7--7h-9----|
--0--0--0--0----|----------------------------|--0--0--0--0----|--0--0--0--0----|
----------------|----------------------------|----------------|----------------|


----------------|----------------------------|----------------|----------------|
----------------|----------------------------|----------------|----------------|
--9--9--9-------|--8-----8-----8--8--7--6----|--9--9--9-------|--9--9--9-------|
--7--7--7h-9----|--8-----8-----8--8--7--6----|--7--7--7h-9----|--7--7--7h-9----|
--0--0--0--0----|----------------------------|--0--0--0--0----|--0--0--0--0----|
----------------|----------------------------|----------------|----------------|


----------------|----------------------------|----------------|----------------|
----------------|----------------------------|----------------|----------------|
--9--9--9-------|--8-----8-----8--8--7--6----|--9--9--9-------|--9--9--9-------|
--7--7--7h-9----|--8-----8-----8--8--7--6----|--7--7--7h-9----|--7M-7--7h-9----|
--0--0--0--0----|----------------------------|--0M-0--0--0----|--0--0--0--0----|
----------------|----------------------------|----------------|----------------|


----------------|----------------------------|----------------|----------------|
----------------|----------------------------|----------------|----------------|
--9--9--9-------|--8-----8-----8--8--7--6----|--9--9--9-------|--9--9--9-------|
--7--7--7h-9----|--8-----8-----8--8--7--6----|--7--7--7h-9----|--7--7--7h-9----|
--0M-0--0--0----|----------------------------|--0M-0--0--0----|--0M-0--0--0----|
----------------|----------------------------|----------------|----------------|


----------------|----------------------------|----------------|----------------|
----------------|----------------------------|----------------|----------------|
--9--9--9-------|--8-----8-----8--8--7--6----|--9--9--9-------|--9--9--9-------|
--7--7--7h-9----|--8-----8-----8--8--7--6----|--7--7--7h-9----|--7--7--7h-9----|
--0M-0--0--0----|----------------------------|--0--0--0--0----|--0--0--0--0----|
----------------|----------------------------|----------------|----------------|


----------------|----------------------------|----------------|----------------|
----------------|----------------------------|----------------|----------------|
--9--9--9-------|--8-----8-----8--8--7--6----|--9--9--9-------|--9--9--9-------|
--7--7--7h-9----|--8-----8-----8--8--7--6----|--7--7--7h-9----|--7--7--7h-9----|
--0--0--0--0----|----------------------------|--0--0--0--0----|--0--0--0--0----|
----------------|----------------------------|----------------|----------------|


----------------|----------------------------|-------------------------------|
----------------|----------------------------|-------------------------------|
--9--9--9-------|--8-----8-----8--8--7--6----|--7-----7-----5--7--5--2-------|
--7--7--7h-9----|--8-----8-----8--8--7--6----|--7-----7-----5--7--5--2-------|
--0--0--0--0----|----------------------------|--5-----5-----3--5--3--0-------|
----------------|----------------------------|-------------------------------|


-------------------------------|-------------------------------|
-------------------------------|-------------------------------|
--7-----7-----5--7--5--2-------|--7-----7-----5--7--5--2-------|
--7-----7-----5--7--5--2-------|--7-----7-----5--7--5--2-------|
--5-----5-----3--5--3--0-------|--5-----5-----3--5--3--0-------|
-------------------------------|-------------------------------|


-------------------------------|-------|----------------|----------------|
-------------------------------|-------|----------------|----------------|
--7-----7-----5--7--5--2-------|-------|--9--9--9-------|--9--9--9-------|
--7-----7-----5--7--5--2-------|-------|--7--7--7h-9----|--7--7--7h-9----|
--5M----5-----3--5--3--0-------|-------|--0--0--0--0----|--0--0--0--0----|
-------------------------------|-------|----------------|----------------|


----------------|----------------------------|----------------|----------------|
----------------|----------------------------|----------------|----------------|
--9--9--9-------|--8-----8-----8--8--7--6----|--9--9--9-------|--9--9--9-------|
--7--7--7h-9----|--8-----8-----8--8--7--6----|--7--7--7h-9----|--7--7--7h-9----|
--0--0--0--0----|----------------------------|--0--0--0--0----|--0--0--0--0----|
----------------|----------------------------|----------------|----------------|


----------------|----------------------------|----------------|----------------|
----------------|----------------------------|----------------|----------------|
--9--9--9-------|--8-----8-----8--8--7--6----|--9--9--9-------|--9--9--9-------|
--7--7--7h-9----|--8-----8-----8--8--7--6----|--7--7--7h-9----|--7--7--7h-9----|
--0--0--0--0----|----------------------------|--0--0--0--0----|--0--0--0--0----|
----------------|----------------------------|----------------|----------------|


----------------|----------------------------|----------------|----------------|
----------------|----------------------------|----------------|----------------|
--9--9--9-------|--8-----8-----8--8--7--6----|--9--9--9-------|--9--9--9-------|
--7--7--7h-9----|--8-----8-----8--8--7--6----|--7--7--7h-9----|--7--7--7h-9----|
--0--0--0--0----|----------------------------|--0--0--0--0----|--0--0--0--0----|
----------------|----------------------------|----------------|----------------|


----------------|----------------------------|----------------------|
----------------|----------------------------|--10-10-10-10-10-10---|
--9--9--9-------|--8-----8-----8--8--7--6----|----------------------|
--7--7--7h-9----|--8-----8-----8--8--7--6----|--7--7--7--7--7--7----|
--0--0--0--0----|----------------------------|----------------------|
----------------|----------------------------|----------------------|


----------------------|----------------------|----------------------|
--10-9--9--9--10-10---|--10-10-10-10-10-10---|--10-10-13-13-13-14---|
----------------------|----------------------|----------------------|
--7--6--6--6--7--7----|--7--7--7--7--7--7----|--7--7--10-10-10-11---|
----------------------|----------------------|----------------------|
----------------------|----------------------|----------------------|


----------------------|----------------------|----------------------|
--10-10-10-10-10-10---|--10-9--9--9--10-10---|--10-10-10-10-10-10---|
----------------------|----------------------|----------------------|
--7--7--7--7--7--7----|--7--6--6--6--7--7----|--7--7--7--7--7--7----|
----------------------|----------------------|----------------------|
----------------------|----------------------|----------------------|


----------------------|----------------------|----------------------|
--10-10-13-13-13-14---|--10-10-10-10-10-10---|--10-9--9--9--10-10---|
----------------------|----------------------|----------------------|
--7--7--10-10-10-11---|--7--7--7--7--7--7----|--7--6--6--6--7--7----|
----------------------|----------------------|----------------------|
----------------------|----------------------|----------------------|


----------------------|----------------------|----------------------|
--10-10-10-10-10-10---|--10-10-13-13-13-14---|--10-10-10-10-10-10---|
----------------------|----------------------|----------------------|
--7--7--7--7--7--7----|--7--7--10-10-10-11---|--7--7--7--7--7--7----|
----------------------|----------------------|----------------------|
----------------------|----------------------|----------------------|


----------------------|----------------------|----------------------|
--10-9--9--9--10-10---|--10-10-10-10-10-10---|--10-10-13-13-13-14---|
----------------------|----------------------|----------------------|
--7--6--6--6--7--7----|--7--7--7--7--7--7----|--7--7--10-10-10-11---|
----------------------|----------------------|----------------------|
----------------------|----------------------|----------------------|


-------------------------------|-------------------------------|
-------------------------------|-------------------------------|
--7-----7-----5--7--5--2-------|--7-----7-----5--7--5--2-------|
--7-----7-----5--7--5--2-------|--7-----7-----5--7--5--2-------|
--5-----5-----3--5--3--0-------|--5-----5-----3--5--3--0-------|
-------------------------------|-------------------------------|


-------------------------------|-------------------------------||
-------------------------------|-------------------------------||
--7-----7-----5--7--5--2-------|--7-----7-----5--7--5--2-------||
--7-----7-----5--7--5--2-------|--7-----7-----5--7--5--2-------||
--5-----5-----3--5--3--0-------|--5M----5-----3--5--3--0-------||
-------------------------------|-------------------------------||

Tap to rate this tab
 
# A B C D E F G H I J K L M N O P Q R S T U V W X Y Z