Song name
# A B C D E F G H I J K L M N O P Q R S T U V W X Y Z

Crudamata - El Mundo Da Vueltas tab

Title: El mundo da vueltas
Artist: Crudamata
Album: El mundo da vueltas
Tempo = 102
Steel Guitar

Legend
L - tied note
x - dead note
h - hammer on/pull off
b - bend
s - slide
~ - vibrato
g - ghost note
> - accentuated note
t - trill
M - palm mute
. - staccato
P - popping (bass)
S - slapping (bass)
+ - tapping
W - wide vibrato
< - fade in
w - whammy bar
= - tremolo picking
v - brush up
^ - brush down
V - pick stroke up
n - pick stroke down


E |----------|----------|----------|----------|----------|----------|----------|
B |----------|----------|----------|----------|----------|----------|----------|
G |-----12---|-----9----|-----12---|-----9----|-----12---|-----9----|-----5----|
D |--10------|--7-------|--10------|--7-------|--10------|--7-------|--3-------|
A |----------|----------|----------|----------|----------|----------|----------|
E |----------|----------|----------|----------|----------|----------|----------|


----------|----------|----------|----------|----------|----------|----------|
----------|----------|----------|----------|----------|----------|----------|
-----7----|-----5----|-----7----|-----12---|-----9----|-----12---|-----9----|
--5-------|--3-------|--5-------|--10------|--7-------|--10------|--7-------|
----------|----------|----------|----------|----------|----------|----------|
----------|----------|----------|----------|----------|----------|----------|


----------------|----------|----------|----------------|----------|
-----------13---|----------|----------|----------------|----------|
-----12---------|-----9----|-----5----|-----7--7s-9----|-----5----|
--10------------|--7-------|--3-------|--5-------------|--3-------|
----------------|----------|----------|----------------|----------|
----------------|----------|----------|----------------|----------|


----------------|----------|----------|----------|----------|----------|
----------------|----------|----------|----------|----------|----------|
-----7--7s-9----|-----12---|-----9b---|-----12---|-----9b---|-----12---|
--5-------------|--10------|--7-------|--10------|--7-------|--10------|
----------------|----------|----------|----------|----------|----------|
----------------|----------|----------|----------|----------|----------|


----------|----------|----------|----------|----------------|----------------|
----------|----------|----------|----------|----------------|----------------|
-----9b---|-----5----|-----7----|-----5----|--7--7--7--7----|--12-12-12-12---|
--7-------|--3-------|--5-------|--3-------|--5--5--5--5----|--10-10-10-10---|
----------|----------|----------|----------|----------------|----------------|
----------|----------|----------|----------|----------------|----------------|


----------------|----------------|----------------|----------------|
----------------|----------------|----------------|----------------|
--9--9--9--9----|--12-12-12-12---|--9--9--9--9----|--12-12-12-12---|
--7--7--7--7----|--10-10-10-10---|--7--7--7--7----|--10-10-10-10---|
----------------|----------------|----------------|----------------|
----------------|----------------|----------------|----------------|


----------------|----------------|----------------|----------------|
----------------|----------------|----------------|----------------|
--9--9--9--9----|--5--5--5--5----|--7--7--7--7----|--5--5--5--5----|
--7--7--7--7----|--3--3--3--3----|--5--5--5--5----|--3--3--3--3----|
----------------|----------------|----------------|----------------|
----------------|----------------|----------------|----------------|


----------------|----------|----------|----------|----------|----------|
----------------|----------|----------|----------|----------|----------|
--7--7--7--7----|-----12---|-----9----|-----12---|-----9----|-----12---|
--5--5--5--5----|--10------|--7-------|--10------|--7-------|--10------|
----------------|----------|----------|----------|----------|----------|
----------------|----------|----------|----------|----------|----------|


----------|----------|----------|----------|----------------|----------------|
----------|----------|----------|----------|----------------|----------------|
-----9----|-----5----|-----7----|-----5----|--7--7--7--7----|--12-12-12-12---|
--7-------|--3-------|--5-------|--3-------|--5--5--5--5----|--10-10-10-10---|
----------|----------|----------|----------|----------------|----------------|
----------|----------|----------|----------|----------------|----------------|


----------------|----------------|----------------|----------------|
----------------|----------------|----------------|----------------|
--9--9--9--9----|--12-12-12-12---|--9--9--9--9----|--12-12-12-12---|
--7--7--7--7----|--10-10-10-10---|--7--7--7--7----|--10-10-10-10---|
----------------|----------------|----------------|----------------|
----------------|----------------|----------------|----------------|


----------------|----------------|----------------|----------------|
----------------|----------------|----------------|----------------|
--9--9--9--9----|--5--5--5--5----|--7--7--7--7----|--5--5--5--5----|
--7--7--7--7----|--3--3--3--3----|--5--5--5--5----|--3--3--3--3----|
----------------|----------------|----------------|----------------|
----------------|----------------|----------------|----------------|


----------------|----------------|----------------|----------------|
----------------|----------------|----------------|----------------|
--7--7--7--7----|--7--9--7--9----|--7--9--7--9----|--7--9--7--9----|
--5--5--5--5----|----------------|----------------|----------------|
----------------|----------------|----------------|----------------|
----------------|----------------|----------------|----------------|


----------------|----------------|----------------|----------------|
----------------|----------------|----------------|----------------|
--7--9--7--9----|--7--9--7--9----|--7--9--7--9----|--4h-5--4h-5----|
----------------|----------------|----------------|----------------|
----------------|----------------|----------------|----------------|
----------------|----------------|----------------|----------------|


----------------|----------------|----------------|----------------|
----------------|----------------|----------------|----------------|
--4h-5--7h-9----|--5--5--5--5----|--7--7--7--7----|--12-12-12-12---|
----------------|--3--3--3--3----|--5--5--5--5----|--10-10-10-10---|
----------------|----------------|----------------|----------------|
----------------|----------------|----------------|----------------|


----------------|----------------|----------------|----------------|
----------------|----------------|----------------|----------------|
--9--9--9--9----|--12-12-12-12---|--9--9--9--9----|--12-12-12-12---|
--7--7--7--7----|--10-10-10-10---|--7--7--7--7----|--10-10-10-10---|
----------------|----------------|----------------|----------------|
----------------|----------------|----------------|----------------|


----------------|----------------|----------------|----------------|
----------------|----------------|----------------|----------------|
--9--9--9--9----|--5--5--5--5----|--7--7--7--7----|--5--5--5--5----|
--7--7--7--7----|--3--3--3--3----|--5--5--5--5----|--3--3--3--3----|
----------------|----------------|----------------|----------------|
----------------|----------------|----------------|----------------|


----------------|-------------|----------------|-------------|-------------|
----------------|-------------|----------------|-------------|-------------|
--7--7--7--7----|--12-12-12---|--9--9--9--9----|--7--9s-7----|--12-12-12---|
--5--5--5--5----|-------------|----------------|-------------|-------------|
----------------|--10-10-10---|--7--7--7--7----|--5--7--5----|--10-10-10---|
----------------|-------------|----------------|-------------|-------------|


----------------|-------------|-------------|----------------|-------------|
----------------|-------------|-------------|----------------|-------------|
--9--9--9--9----|--7--5s-7----|--12-12-12---|--9--9--9--9----|--7--9s-7----|
----------------|-------------|-------------|----------------|-------------|
--7--7--7--7----|--5--3--5----|--10-10-10---|--7--7--7--7----|--5--7--5----|
----------------|-------------|-------------|----------------|-------------|


-------------|----------------|-------------|-------||
-------------|----------------|-------------|-------||
--12-12-12---|--9--9--9--9----|--7--5s-7----|--5----||
-------------|----------------|-------------|-------||
--10-10-10---|--7--7--7--7----|--5--3--5----|--3----||
-------------|----------------|-------------|-------||

Tap to rate this tab
 
# A B C D E F G H I J K L M N O P Q R S T U V W X Y Z