Song name
# A B C D E F G H I J K L M N O P Q R S T U V W X Y Z

Cruel Sea - Cocaine tab

-------------------------------------------------------------------------------
			     COCAINE - The Cruel Sea
-------------------------------------------------------------------------------
Tabbed by: Tom W

e|---------------------------------------------------------------------------|
B|---------------------------------------------------------------------------|
G|------------------5b-------------------------------------------------------|
D|--7-7-7-----5-7-------7----7-7-----5-7--5-7--------------------------------|
A|---------7----------------------7------------------------------------------|
E|---------------------------------------------------------------------------|

OR

e|---------------------------------------------------------------------------|
B|---------------------------------------------------------------------------|
G|---------------------------------------------------------------------------|
D|---------------------------------------------------------------------------|
A|---------------3b----------------------------------------------------------|
E|--5-5-5--0-3-5-----5---5-5-0-3-5--3-5--------------------------------------|
Tap to rate this tab
# A B C D E F G H I J K L M N O P Q R S T U V W X Y Z