Song name
# A B C D E F G H I J K L M N O P Q R S T U V W X Y Z

Cruiser - Souvenir tab

-----------------------------------------------
            SOUVENIR - Cruiser
-----------------------------------------------

Website: http://cruisercruiser.bandcamp.com/
Tuning: Standard

Intro & Verse:
     A    C#m  Bm   E
e|---5-5--4-4--2-2--0-0------------------------|
B|---5-5--5-5--3-3--0-0------------------------|
G|---6-6--6-6--4-4--1-1------------------------|
D|---7-7--6-6--4-4--2-2------------------------|
A|---7-7--4-4--3-3--2-2------------------------|
E|---5-5--4-4--x-x--0-0------------------------|


Pre-Chorus:
     D    C#m  A                            (3x)
e|---5-5--4-4--5-5-5-5-------------------------|
B|---7-7--5-5--5-5-5-5-------------------------|
G|---7-7--6-6--6-6-6-6-------------------------|
D|---7-7--6-6--7-7-7-7-------------------------|
A|---5-5--4-4--7-7-7-7-------------------------|
E|---x-x--4-4--5-5-5-5-------------------------|

     F#m  E    A                            
e|---2-2--0-0--5-5-5-5-------------------------|
B|---2-2--0-0--5-5-5-5-------------------------|
G|---2-2--1-1--6-6-6-6-------------------------|
D|---4-4--2-2--7-7-7-7-------------------------|
A|---4-4--2-2--7-7-7-7-------------------------|
E|---2-2--0-0--5-5-5-5-------------------------|

Chorus:
              F#m        A      E Bm
But if theres any way to keep you
        F#m           A               E      Bm
I could find a way to see right through your bones
          F#m         A      E Bm
If theres anywhere to meet you
        D      C#m        A
I'll be there, I can't be alone

Bridge:
     Bm   F#m  A    E                            
e|---2-2--2-2--5-5--0-0------------------------|
B|---3-3--2-2--5-5--0-0------------------------|
G|---4-4--2-2--6-6--1-1------------------------|
D|---4-4--4-4--7-7--2-2------------------------|
A|---2-2--4-4--7-7--2-2------------------------|
E|---x-x--2-2--5-5--0-0------------------------|
Tap to rate this tab
# A B C D E F G H I J K L M N O P Q R S T U V W X Y Z