Song name
# A B C D E F G H I J K L M N O P Q R S T U V W X Y Z

Crumbsuckers - Moments Of Silence tab

/  slide


Pattern A     4X
E------------------------------------------------------------------------------------|
B------------------------------------------------------------------------------------|
G------------------------------------------------------------------------------------|
D------------5----------------7-----7------------------------------------------------|
A----------7---7---7--/--9-------9---------------------------------------------------|
E----0-------------------------------------------------------------------------------|



Pattern B    2X
E------------------------------------------------------------------------------------|
B------------------------------------------------------------------------------------|
G--------------5----------------7----7-----------------------------------------------|
D-----------7---7--7--/---9-------9--------------------------------------------------|
A------0-----------------------------------------------------------------------------|
E------------------------------------------------------------------------------------|


Pattern A    2X
E------------------------------------------------------------------------------------|
B------------------------------------------------------------------------------------|
G------------------------------------------------------------------------------------|
D------------5--------------7-----7--------------------------------------------------|
A----------7---7---7--/--9-----9-----------------------------------------------------|
E----0-------------------------------------------------------------------------------|


Bridge
E------------------------------------------------------------------------------------|
B------------3-----------------------3--------------------3-------------------3------|
G--------2------2---------------2-------2------------2-------2-------------2-----2---|
D---0--------------------------------------------------------------------------------|
A------------------------1-----------------------2--------------------1--------------|
E------------------------------------------------------------------------------------|



E------------------------------------------------------------------------------------|
B---3--------3----------------3--------------------3---------------------------------|
G---2-----2-----2----------2-----2--------------2-----2--------------2---------------|
D---0--------------------------------------------------------------------------------|
A-----------------------1--------------------2--------------------1------------------|
E-------------------------------------------------------------------------3--2---0---|


Pattern C   2X
E------------------------------------------------------------------------------------|
B------------------------------------------------------------------------------------|
G------------------------------------------------------------------------------------|
D---------5-----------------7-----7---------------5-----------9----7---5---4---------|
A------7-----7----7-/--9------9---------------7-------7------10----9---7---5---------|
E---0-------------------------------------0------------------------------------------|


Pattern D
E------------------------------------------------------------------------------------|
B------------------------------------------------------------------------------------|
G------------5---------------7-----7---------------5--------------9----7---5----4----|
D----------7---7---7--/--9------9--------------7------7----------10----9---7----5----|
A----0------------------------------------0------------------------------------------|
E------------------------------------------------------------------------------------|



E------------------------------------------------------------------------------------|
B------------------------------------------------------------------------------------|
G---------------5-----------------7------7------------5------9--7--------------------|
D-----------7------7----7--/--9------9-------------7-----7---------9--7--------------|
A------0----------------------------------------0------------------------9-7--5------|
E--------------------------------------------------------------------------------7---|



Pattern C   2X    (slowing down near the end)
E------------------------------------------------------------------------------------|
B------------------------------------------------------------------------------------|
G------------------------------------------------------------------------------------|
D-------5-----------------7------7---------------5-----------9----7---5---4----------|
A----7-----7-----7-/--9------9---------------7-------7------10----9---7---5----------|
E--0-------------------------------------0-------------------------------------------|


Finale
E-----------------------------------------------------------------------------------|
B-----------------------------------------------------------------------------------|
G------------------0------------------------------------------0----0----------------|
D------------4---------4---------------------------------4---------------4----------|
A--------7-------------------7---------------------7----------------------------7---|
E-----0---------------------------------------0-------------------------------------|
Tap to rate this tab
 
# A B C D E F G H I J K L M N O P Q R S T U V W X Y Z