Song name
# A B C D E F G H I J K L M N O P Q R S T U V W X Y Z

Crush 40 - Knight Of The Wind tab

-----------------------------------------------------------------
Knight Of The Wind(Intro and a bit of Verse) - Crush 40
-----------------------------------------------------------------
This Is My First Tab Its Very Crap But I tried to copy a from a
certian youtube vid By Zephre thing is im only doing this
because theres only the intro wich isnt even right so
im Working On the rest so its called whoel song because there is no other except 
song,solo and album
No critism please ive only been learning guitar for 6 months
Im Also Working On the Rest And Chorus and mabye someday i will
surpass Jun Senoue

Link: http://www.youtube.com/watch?v=gSaUwOlEDzc
Tabbed by:W4K0
Email:Shockwave_123@hotmail.co.uk

Tuning:Standard

Intro

e|---------------------------------------------------------------|
B|----------------44444---------------10-10----------------------|
G|-9-8-9---9-8-9--------9-8-9---9-8-9----------------------------|
D|-------7--------------------7----------------------------------|
A|---------------------------------------------------------------|
E|---------------------------------------------------------------|

Verse (Beggining)

e|---------------------------------------------------------------|
B|---------------------------------------------------------------|
G|-3-3-33--6-6-66--5-5-55--4-4-44--------------------------------|
D|-3-3-33--6-6-66--5-5-55--4-4-44--------------------------------|
A|-3-3-33--6-6-66--5-5-55--4-4-44--------------------------------|
E|---------------------------------------------------------------|

e|---------------------------------------------------------------|
B|-3-3-33--6-6-66--8-8-88--10-10-1010----------------------------|
D|-3-3-33--6-6-66--8-8-88--10-10-1010----------------------------|
A|-3-3-33--6-6-66--8-8-88--10-10-1010----------------------------|
G|---------------------------------------------------------------|
D|---------------------------------------------------------------|
A|---------------------------------------------------------------|
E|---------------------------------------------------------------|
Tap to rate this tab
# A B C D E F G H I J K L M N O P Q R S T U V W X Y Z