Song name
# A B C D E F G H I J K L M N O P Q R S T U V W X Y Z

Crush 40 - Fight The Knight tab

From the Wii game 'Sonic and the Black Knight', during the Boss Battle with King Arthur. 
is by ear so may be inaccurate.

Album: Face to Faith: Sonic and the Black Knight Vocal Traxx (2009)

E|---------------------------|
B|---------------------------|
G|---------------------------|
D|-2--22-22------------------|
A|-2--22-22------------------|
E|-0--00-00------------------|
"My will to fight the knight!"

E|-----------------------------|
B|-----------------------------|
G|-----------------------------|
D|-----------------------------|
A|-----------------------------|
E|-00-33-00-2------------------|
After the first "My will to fight the knight!" and after the last one.

E|-----------------------------|
B|-----------------------------|
G|-----------------------------|
D|-----------------------------|
A|-----------2-----------------|
E|-00-33-00--------------------|
The second "My will to fight the knight!".
Tap to rate this tab
# A B C D E F G H I J K L M N O P Q R S T U V W X Y Z