Crush 40 - I Am All Of Me tab

Crush 40 - I Am... All of Me
[The Best of Crush 40  Super Sonic Songs]
Tab by 'Iced Coffee' for Ultimate-Guitar.com

So this is my first tab. I'm not 100% sure about it's accuracy but this is how I 
play the song and it seems pretty right to me.
I think you can easily figure this out.
Have fun and feel free to comment and rate!

Tuning: DropC
. Palm mute
/ Slide up
\ Slide down
~ Hold note
_____________________________________________________________________________
 Order:
 1 Intro                  7 Chorus
 2 Verse                  8 2nd Part of Intro
 3 Pre-Chorus             9 Bridge
 4 Chorus                10 Chorus
 5 Verse                 11 Outro
 6 Pre-Chorus
_____________________________________________________________________________

Intro:
1st Part:
|--------------------------------------------------|
|--------------------------------------------------|
|--------------------------------------------------|
|-00-222-55555666653-00-222-55555666653-------3--8-|
|-00-222-55555666653-00-222-55555666653-3/5-5--4~--|
|-00-222-55555666653-00-222-555556666530---7-6-----|

2nd Part:
|---------------------------------------------------------------------------|
|---------------------------------------------------------------------------|
|---------------------------------------------------------------------------|
|-00----------------333-33311-0-----------------333-33311-006-006-00666530~-|
|-00----------------333-33311-0-----------------333-33311-006-006-00666530~-|
|-007766770077101076333-33311-007766770077101076333-33311-006-006-00666530~-|


Verse:
|-----------------------------------------------------------|
|-----------------------------------------------------------|
|-------------333055554444333-------------------55554444333-|
|-3330--6660--3330555544443330--3330--6660--333055554444333-|
|-3330--6660--3330333322221110--3330--6660--333033332222111-|
|-3330--6660--3330-----------0--3330--6660--3330------------|


Pre-Chorus:
|--------------------| x5 |-------------|
|--------------------|	  |-------------|
|--------------------|	  |-55-55-88888-|
|-0-005~5/8\7~7/10\8-|	  |-------88888-|
|-0-003~3/6\5~5/ 8\6-|	  |-------------|
|-0-00---------------|	  |-------------|
  . ..


Chorus:
1st Part:
|----------------------------------------------------| x2
|----------------------------------------------------|
|----------------------------------------------------|
|-000333-1010101010101010555/888888887777665-6-5-3-0-|
|-000333-1010101010101010555/888888887777665-6-5-3-0-|
|-000333-1010101010101010555/888888887777665-6-5-3-0-|

2nd Part:
|------------------------------------------------------------|
|------------------------------------------------------------|
|------------------------------------------------------------|
|-000007-777653-3333336-666530-000007-77765-006-006-006-0030-|
|-000007-777653-3333336-666530-000007-77765-006-006-006-0030-|
|-000007-777653-3333336-666530-000007-77765-006-006-006-0030-|

2nd Chorus, 1st Part only:
|--------------------------------------------------|
|--------------------------------------------9-5-6-|
|--------------------------------------------8-7-5-|
|-000333-1010101010101010555/888888887777665-6-5-3-|
|-000333-1010101010101010555/888888887777665-------|
|-000333-1010101010101010555/888888887777665-------|


'Bridge':
(Played at the 'Do it!' part)
|-----------------|
|-----------------|
|-------------888-|
|-006-006-0060888-|
|-006-006-0060----|
|-006-006-0060----|


Outro:
|------------------|
|------------------|
|---------------3~-|
|-006-006-0060033~-|
|-006-006-0060031~-|
|-006-006-006003---|
Tap to rate this tab
 
# A B C D E F G H I J K L M N O P Q R S T U V W X Y Z