Song name
# A B C D E F G H I J K L M N O P Q R S T U V W X Y Z

Crush 40 - Watch Me Fly tab

                                         
                                - CRUSH 40 -

                                Watch Me Fly
Tempo = 110

Acoustic Guitar -------------------------------------------------------------


     E  S E  S E  E  S E  S E     E  S E  S E  E  S E  S E   
E||--0--0-0--0-0--0--0-0--0-0--|--0--0-0--0-0--0--0-0--0-0--|
B||--0--0-0--0-0--0--0-0--0-0--|--0--0-0--0-0--0--0-0--0-0--|
G||--1--1-1--1-1--1--1-1--1-1--|--1--1-1--1-1--1--1-1--1-1--|
D||--2--2-2--2-2--2--2-2--2-2--|--2--2-2--2-2--2--2-2--2-2--|
A||--2--2-2--2-2--2--2-2--2-2--|--2--2-2--2-2--2--2-2--2-2--|
E||--0--0-0--0-0--0--0-0--0-0--|--0--0-0--0-0--0--0-0--0-0--|


 E  S E  S E  E  S E  S E     E  S E  S E  H           Q    E  Q    E  Q    
-0--0-0--0-0--0--0-0--0-0--|--0--0-0--0-0--0--------|--0----0--0----0--0----|
-0--0-0--0-0--0--0-0--0-0--|--0--0-0--0-0--0--------|--0----0--0----0--0----|
-1--1-1--1-1--1--1-1--1-1--|--1--1-1--1-1--1--------|--1----1--1----1--1----|
-2--2-2--2-2--2--2-2--2-2--|--2--2-2--2-2--2--------|--2----2--2----2--2----|
-2--2-2--2-2--2--2-2--2-2--|--2--2-2--2-2--2--------|--2----2--2----2--2----|
-0--0-0--0-0--0--0-0--0-0--|--0--0-0--0-0--0--------|--0----0--0----0--0----|


  Q    E  Q    E  Q       Q    E  Q    E  Q       Q    E  Q    E  Q     
--0----0--0----0--0----|--4----4--4----4--4----|--4----4--4----4--4----|
--0----0--0----0--0----|--5----5--5----5--5----|--5----5--5----5--5----|
--1----1--1----1--1----|--6----6--6----6--6----|--6----6--6----6--6----|
--2----2--2----2--2----|--6----6--6----6--6----|--6----6--6----6--6----|
--2----2--2----2--2----|--4----4--4----4--4----|--4----4--4----4--4----|
--0----0--0----0--0----|-----------------------|-----------------------|


  Q    E  Q    E  Q       Q    E  Q    E  Q       Q.     Q.     Q     
--5----5--5----5--5----|--5----5--5----5--5----|--2------2------2----|
--5----5--5----5--5----|--5----5--5----5--5----|--2------2------2----|
--6----6--6----6--6----|--6----6--6----6--6----|--2------2------2----|
--7----7--7----7--7----|--7----7--7----7--7----|--4------4------4----|
--7----7--7----7--7----|--7----7--7----7--7----|--4------4------4----|
--5----5--5----5--5----|--5----5--5----5--5----|--2------2------2----|


  Q.     H        E     Q    E  E  E  E  Q       Q    E  E  E  E  Q     
--0------2--------L--|--0----0--0--0--0--0----|--0----0--0--0--0--0----|
--2------4--------L--|--0----0--0--0--0--0----|--0----0--0--0--0--0----|
--2------4--------L--|--1----1--1--1--1--1----|--1----1--1--1--1--1----|
--2------4--------L--|--2----2--2--2--2--2----|--2----2--2--2--2--2----|
--0------2--------L--|--2----2--2--2--2--2----|--2----2--2--2--2--2----|
---------------------|--0----0--0--0--0--0----|--0----0--0--0--0--0----|


  Q    E  E  E  E  Q       Q    E  E  E  E  Q       Q    E  E  E  E  Q     
--4----4--4--4--4--4----|--4----4--4--4--4--4----|--0----0--0--0--0--0----|
--5----5--5--5--5--5----|--5----5--5--5--5--5----|--2----2--2--2--2--2----|
--6----6--6--6--6--6----|--6----6--6--6--6--6----|--2----2--2--2--2--2----|
--6----6--6--6--6--6----|--6----6--6--6--6--6----|--2----2--2--2--2--2----|
--4----4--4--4--4--4----|--4----4--4--4--4--4----|--0----0--0--0--0--0----|
------------------------|------------------------|------------------------|


  Q    E  E  E  E  Q       W                   Q.     H        E   
--0----0--0--0--0--0----|--2----------------|--0------2--------L--|
--2----2--2--2--2--2----|--2----------------|--2------4--------L--|
--2----2--2--2--2--2----|--2----------------|--2------4--------L--|
--2----2--2--2--2--2----|--4----------------|--2------4--------L--|
--0----0--0--0--0--0----|--4----------------|--0------2--------L--|
------------------------|--2----------------|---------------------|


  Q    E  E  E  E  Q       Q    E  E  E  E  Q       Q    E  E  E  E  Q     
--0----0--0--0--0--0----|--0----0--0--0--0--0----|--4----4--4--4--4--4----|
--0----0--0--0--0--0----|--0----0--0--0--0--0----|--5----5--5--5--5--5----|
--1----1--1--1--1--1----|--1----1--1--1--1--1----|--6----6--6--6--6--6----|
--2----2--2--2--2--2----|--2----2--2--2--2--2----|--6----6--6--6--6--6----|
--2----2--2--2--2--2----|--2----2--2--2--2--2----|--4----4--4--4--4--4----|
--0----0--0--0--0--0----|--0----0--0--0--0--0----|------------------------|


  Q    E  E  E  E  Q       Q    E  E  E  E  Q       Q    E  E  E  E  Q     
--4----4--4--4--4--4----|--0----0--0--0--0--0----|--0----0--0--0--0--0----|
--5----5--5--5--5--5----|--2----2--2--2--2--2----|--2----2--2--2--2--2----|
--6----6--6--6--6--6----|--2----2--2--2--2--2----|--2----2--2--2--2--2----|
--6----6--6--6--6--6----|--2----2--2--2--2--2----|--2----2--2--2--2--2----|
--4----4--4--4--4--4----|--0----0--0--0--0--0----|--0----0--0--0--0--0----|
------------------------|------------------------|------------------------|


  Q.     Q.     Q       Q.     H        E     W                 
--2------2------2----|--0------2--------L--|--0----------------|
--2------2------2----|--2------4--------L--|--0----------------|
--2------2------2----|--2------4--------L--|--1----------------|
--4------4------4----|--2------4--------L--|--2----------------|
--4------4------4----|--0------2--------L--|--2----------------|
--2------2------2----|---------------------|--0----------------|


  W                   Q.     Q.     Q       Q.     Q.     Q     
--5----------------|--0------0------0----|--0------0------0----|
--3----------------|--0------0------0----|--0------0------0----|
--2----------------|--1------1------1----|--1------1------1----|
--0----------------|--2------2------2----|--2------2------2----|
-------------------|--2------2------2----|--2------2------2----|
-------------------|--0------0------0----|--0------0------0----|


  W                   W                   W                 
--0----------------|--5----------------|--2----------------|
--0----------------|--3----------------|--4----------------|
--1----------------|--2----------------|--4----------------|
--2----------------|--0----------------|--4----------------|
--2----------------|-------------------|--2----------------|
--0----------------|-------------------|-------------------|


  Q.     Q.     Q       W                   W                 
--2------2------2----|--0----------------|--5----------------|
--4------4------4----|--0----------------|--3----------------|
--4------4------4----|--1----------------|--2----------------|
--4------4------4----|--2----------------|--0----------------|
--2------2------2----|--2----------------|-------------------|
---------------------|--0----------------|-------------------|


  Q    E  Q.     Q       Q    E  Q.     Q       Q    E  Q.     Q     
--0----0--0------0----|----------------------|--2----2--2------2----|
--0----0--0------0----|--6----6--6------6----|--2----2--2------2----|
--1----1--1------1----|--6----6--6------6----|--2----2--2------2----|
--2----2--2------2----|--6----6--6------6----|--4----4--4------4----|
--2----2--2------2----|--4----4--4------4----|--4----4--4------4----|
--0----0--0------0----|----------------------|--2----2--2------2----|


  E  Q.     H           H           E  E  E  E  E  E  E  E   
--0--0------2--------|--0--------|-----------------------0--|
--2--2------4--------|--0--------|-----------------0--------|
--2--2------4--------|--1--------|-----------1--------1-----|
--2--2------4--------|--2--------|-----2--------2-----------|
--0--0------2--------|--2--------|--------2-----------------|
---------------------|--0--------|--0-----------------------|


  E  E  E  E  E  E  E  E     Q    E  E  E  E  Q       Q    E  E  E  E  Q     
--------------------------|--0----0--0--0--0--0----|--0----0--0--0--0--0----|
--0-----------------------|--0----0--0--0--0--0----|--0----0--0--0--0--0----|
--------1-----------------|--1----1--1--1--1--1----|--1----1--1--1--1--1----|
-----2--------2--------2--|--2----2--2--2--2--2----|--2----2--2--2--2--2----|
-----------2--------2-----|--2----2--2--2--2--2----|--2----2--2--2--2--2----|
-----------------0--------|--0----0--0--0--0--0----|--0----0--0--0--0--0----|


  Q    E  E  E  E  Q       Q    E  E  E  E  Q       Q    E  E  E  E  Q     
--4----4--4--4--4--4----|--4----4--4--4--4--4----|--0----0--0--0--0--0----|
--5----5--5--5--5--5----|--5----5--5--5--5--5----|--2----2--2--2--2--2----|
--6----6--6--6--6--6----|--6----6--6--6--6--6----|--2----2--2--2--2--2----|
--6----6--6--6--6--6----|--6----6--6--6--6--6----|--2----2--2--2--2--2----|
--4----4--2--4--4--4----|--4----4--2--4--4--4----|--0----0--0--0--0--0----|
------------------------|------------------------|------------------------|


  Q    E  E  E  E  Q       W                   Q.     H        E   
--0----0--0--0--0--0----|--2----------------|--0------2--------L--|
--2----2--2--2--2--2----|--2----------------|--2------4--------L--|
--2----2--2--2--2--2----|--2----------------|--2------4--------L--|
--2----2--2--2--2--2----|--4----------------|--2------4--------L--|
--0----0--0--0--0--0----|--4----------------|--0------2--------L--|
------------------------|--2----------------|---------------------|


  ^                   ^                                       
  W                   W                   Q.     Q.     Q     
--0----------------|--5----------------|--0------0------0----|
--0----------------|--3----------------|--0------0------0----|
--1----------------|--2----------------|--1------1------1----|
--2----------------|--0----------------|--2------2------2----|
--2----------------|-------------------|--2------2------2----|
--0----------------|-------------------|--0------0------0----|


  Q.     Q.     Q       W                   W                 
--0------0------0----|--0----------------|--5----------------|
--0------0------0----|--0----------------|--3----------------|
--1------1------1----|--1----------------|--2----------------|
--2------2------2----|--2----------------|--0----------------|
--2------2------2----|--2----------------|-------------------|
--0------0------0----|--0----------------|-------------------|


  W                   Q.     Q.     Q       W                 
--2----------------|--2------2------2----|--0----------------|
--4----------------|--4------4------4----|--0----------------|
--4----------------|--4------4------4----|--1----------------|
--4----------------|--4------4------4----|--2----------------|
--2----------------|--2------2------2----|--2----------------|
-------------------|---------------------|--0----------------|


  W                   Q    E  Q.     Q       Q    E  Q.     Q     
--5----------------|--0----0--0------0----|----------------------|
--3----------------|--0----0--0------0----|--6----6--6------6----|
--2----------------|--1----1--1------1----|--6----6--6------6----|
--0----------------|--2----2--2------2----|--6----6--6------6----|
-------------------|--2----2--2------2----|--4----4--4------4----|
-------------------|--0----0--0------0----|----------------------|


  Q    E  Q.     Q       E  Q.     H           H         
--2----2--2------2----|--0--0------2--------|-----------|
--2----2--2------2----|--2--2------4--------|-----------|
--2----2--2------2----|--2--2------4--------|-----------|
--4----4--4------4----|--2--2------4--------|-----------|
--4----4--4------4----|--0--0------2--------|-----------|
--2----2--2------2----|---------------------|-----------|


  Q    E  Q    E  Q       Q    E  Q    E  Q       E  E  E  E  E  E  E  E   
--0----0--0----0--0----|--0----0--0----0--0----|--------------------------|
--0----0--0----0--0----|--0----0--0----0--0----|--5--5--5--5--5--5--5--5--|
--1----1--1----1--1----|--1----1--1----1--1----|--6--6--6--6--6--6--6--6--|
--2----2--2----2--2----|--2----2--2----2--2----|--6--6--6--6--6--6--6--6--|
--2----2--2----2--2----|--2----2--2----2--2----|--4--4--4--4--4--4--4--4--|
--0----0--0----0--0----|--0----0--0----0--0----|--------------------------|


  E  E  E  E  E  E  E  E     Q.     H        E     Q.     H        E   
--------------------------|--0------0--------L--|--0------0--------L--|
--4--4--4--5--5--5--5--5--|--2------2--------L--|--2------2--------L--|
--6--6--6--6--6--6--6--6--|--2------2--------L--|--2------2--------L--|
--6--6--6--6--6--6--6--6--|--2------2--------L--|--2------2--------L--|
--4--4--4--4--4--4--4--4--|--0------0--------L--|--0------0--------L--|
--------------------------|---------------------|---------------------|


  Q    E  Q    E  Q       E  E  E  E  H           E  E  E  Q    E  E  E   
--2----2--2----2--2----|--0--0--0--2--L--------|--3--3--3--3----3--3--3--|
--2----2--2----2--2----|--2--2--2--4--L--------|--0--0--0--0----0--0--0--|
--2----2--2----2--2----|--2--2--2--4--L--------|--0--0--0--0----0--0--0--|
--4----4--4----4--4----|--2--2--2--4--L--------|--0--0--0--0----0--0--0--|
--4----4--4----4--4----|--0--0--0--2--L--------|--2--2--2--2----2--2--2--|
--2----2--2----2--2----|-----------------------|--3--3--3--3----3--3--3--|


  E  E  E  Q    E  E  E     Q.     Q.     Q       Q.     Q.     Q     
--2--2--2--2----2--2--2--|--2------2------2----|--3------3------3----|
--3--3--3--3----3--3--3--|--3------3------3----|--0------0------0----|
--2--2--2--2----2--2--2--|--2------2------2----|--0------0------0----|
--0--0--0--0----0--0--0--|--0------0------0----|--0------0------0----|
-------------------------|---------------------|--2------2------2----|
-------------------------|---------------------|--3------3------3----|


  E  E  E  Q    E  E  E     Q    Q    Q    Q       W                 
--3--3--3--3----3--3--3--|--2----2----2----2----|-------------------|
--0--0--0--0----0--0--0--|--3----3----3----3----|-------------------|
--0--0--0--0----0--0--0--|--2----2----2----2----|-------------------|
--0--0--0--0----0--0--0--|--0----0----0----0----|-------------------|
--2--2--2--2----2--2--2--|----------------------|-------------------|
--3--3--3--3----3--3--3--|----------------------|-------------------|


  W                   W                   H           Q    E  Q    E  E  E   
-------------------|-------------------|-----------|--0----0--0----0--0--0--|
-------------------|-------------------|-----------|--0----0--0----0--0--0--|
-------------------|-------------------|-----------|--1----1--1----1--1--1--|
-------------------|-------------------|-----------|--2----2--2----2--2--2--|
-------------------|-------------------|-----------|--2----2--2----2--2--2--|
-------------------|-------------------|-----------|--0----0--0----0--0--0--|


  E  E  E  Q    E  Q       Q    E  Q    E  E  E     E  E  E  Q    E  Q     
--2--2--2--2----2--2----|--2----2--2----2--2--2--|--0--0--0--0----0--0----|
--4--4--4--4----4--4----|--3----3--3----3--3--3--|--2--2--2--2----2--2----|
--4--4--4--4----4--4----|--2----2--2----2--2--2--|--2--2--2--2----2--2----|
--4--4--4--4----4--4----|--0----0--0----0--0--0--|--2--2--2--2----2--2----|
--2--2--2--2----2--2----|------------------------|--0--0--0--0----0--0----|
------------------------|------------------------|------------------------|


  E  E  E  Q.     Q       E  E  E  Q.     Q       Q    E  Q    E  Q     
--2--2--2--2------2----|--4--4--4--4------4----|--5----5--5----5--5----|
--2--2--2--2------2----|--4--4--4--4------4----|--5----5--5----5--5----|
--2--2--2--2------2----|--4--4--4--4------4----|--6----6--6----6--6----|
--4--4--4--4------4----|--6--6--6--6------6----|--7----7--7----7--7----|
--4--4--4--4------4----|--6--6--6--6------6----|--7----7--7----7--7----|
--2--2--2--2------2----|--4--4--4--4------4----|--5----5--5----5--5----|


  E  E  E  E  H           E  E  Q    E  E  Q       E  E  Q    E  E  Q     
--7--7--7--7--7--------|--0--0-------0--0-------|--2--2-------2--2-------|
--7--7--7--7--7--------|--0--0-------0--0-------|--4--4-------4--4-------|
--8--8--8--8--8--------|--1--1-------1--1-------|--4--4-------4--4-------|
--9--9--9--9--9--------|--2--2-------2--2-------|--4--4-------4--4-------|
--9--9--9--9--9--------|--2--2-------2--2-------|--2--2-------2--2-------|
--7--7--7--7--7--------|--0--0-------0--0-------|------------------------|


  E  E  E  Q    E  Q       E  E  E  Q    E  Q       E  E  E  Q    E  Q     
--2--2-----2----2--2----|--0--0-----0----0--0----|--2--2--2--2----2--2----|
--3--3-----3----3--3----|--2--2-----2----2--2----|--2--2--2--2----2--2----|
--2--2-----2----2--2----|--2--2-----2----2--2----|--2--2--2--2----2--2----|
--0--0-----0----0--0----|--2--2-----2----2--2----|--4--4--4--4----4--4----|
------------------------|--0--0-----0----0--0----|--4--4--4--4----4--4----|
------------------------|------------------------|--2--2--2--2----2--2----|


  E  E  E  Q    E  Q       Q    E  Q    E  Q       E  E  E  E  E  E  Q     
--4--4--4--4----4--4----|--5----5--5----5--5----|--7--7--7--7--7--7--7----|
--4--4--4--4----4--4----|--5----5--5----5--5----|--7--7--7--7--7--7--7----|
--4--4--4--4----4--4----|--6----6--6----6--6----|--8--8--8--8--8--8--8----|
--6--6--6--6----6--6----|--7----7--7----7--7----|--9--9--9--9--9--9--9----|
--6--6--6--6----6--6----|--7----7--7----7--7----|--9--9--9--9--9--9--9----|
--4--4--4--4----4--4----|--5----5--5----5--5----|--7--7--7--7--7--7--7----|


    Q    E  Q    E  Q       Q    E  Q    E  Q       E  E  E  E  E  E  E  E   
|---0----0--0----0--0----|--0----0--0----0--0----|--------------------------|
|---0----0--0----0--0----|--0----0--0----0--0----|--5--5--5--5--5--5--5--5--|
|*--1----1--1----1--1----|--1----1--1----1--1----|--6--6--6--6--6--6--6--6--|
|*--2----2--2----2--2----|--2----2--2----2--2----|--6--6--6--6--6--6--6--6--|
|---2----2--2----2--2----|--2----2--2----2--2----|--4--4--4--4--4--4--4--4--|
|---0----0--0----0--0----|--0----0--0----0--0----|--------------------------|


  E  E  E  E  E  E  E  E     Q.     H        E     Q.     H        E   
--------------------------|--0------0--------L--|--0------0--------L--|
--4--4--4--5--5--5--5--5--|--2------2--------L--|--2------2--------L--|
--6--6--6--6--6--6--6--6--|--2------2--------L--|--2------2--------L--|
--6--6--6--6--6--6--6--6--|--2------2--------L--|--2------2--------L--|
--4--4--4--4--4--4--4--4--|--0------0--------L--|--0------0--------L--|
--------------------------|---------------------|---------------------|


  Q    E  Q    E  Q       E  E  E  E  H             E  E  E  E  E  E  E  E   
--2----2--2----2--2----|--0--0--0--2--L---------||--0--0--0--0--0--0--0--2--|
--2----2--2----2--2----|--2--2--2--4--L---------||--1--1--1--1--1--1--------|
--2----2--2----2--2----|--2--2--2--4--L--------*||--0--0--0--0--0--0--------|
--4----4--4----4--4----|--2--2--2--4--L--------*||--2--2--2--2--2--2--------|
--4----4--4----4--4----|--0--0--0--2--L---------||--3--3--3--3--3--3--------|
--2----2--2----2--2----|------------------------||--------------------------|


  E  E  E  E  E  E  E  E     Q    E  Q    E  Q       Q    E  Q    E  Q     
--2--2--2--2--2--2--2--2--|--0----0--0----0--0----|--0----0--0----0--0----|
--3--3--3--3--3--3--3--3--|--0----0--0----0--0----|--0----0--0----0--0----|
--2--2--2--2--2--2--2--2--|--1----1--1----1--1----|--1----1--1----1--1----|
--0--0--0--0--0--0--0--0--|--2----2--2----2--2----|--2----2--2----2--2----|
--------------------------|--2----2--2----2--2----|--2----2--2----2--2----|
--------------------------|--0----0--0----0--0----|--0----0--0----0--0----|


  Q    E  Q    E  Q       Q    E  Q    E  Q       Q    E  Q    E  Q     
--4----4--4----4--4----|--4----4--4----4--4----|--5----5--5----5--5----|
--5----5--5----5--5----|--5----5--5----5--5----|--5----5--5----5--5----|
--6----6--6----6--6----|--6----6--6----6--6----|--6----6--6----6--6----|
--6----6--6----6--6----|--6----6--6----6--6----|--7----7--7----7--7----|
--4----4--4----4--4----|--4----4--4----4--4----|--7----7--7----7--7----|
-----------------------|-----------------------|--5----5--5----5--5----|


  Q    E  Q    E  Q       Q.     Q.     Q       Q.     H        E   
--5----5--5----5--5----|--2------2------2----|--0------2--------L--|
--5----5--5----5--5----|--2------2------2----|--2------4--------L--|
--6----6--6----6--6----|--2------2------2----|--2------4--------L--|
--7----7--7----7--7----|--4------4------4----|--2------4--------L--|
--7----7--7----7--7----|--4------4------4----|--0------2--------L--|
--5----5--5----5--5----|--2------2------2----|---------------------|


  S S S S H.              W                   W                 
----------0------------|--L----------------|--L----------------|
----------0------------|--L----------------|--L----------------|
--------1-1------------|--L----------------|--L----------------|
------2---2------------|--L----------------|--L----------------|
----2-----2------------|--L----------------|--L----------------|
--0-------0------------|--L----------------|--L----------------|


  W                   W                  
-------------------|-------------------||
-------------------|-------------------||
-------------------|-------------------||
-------------------|-------------------||
-------------------|-------------------||
-------------------|-------------------||

Lead Guitar -----------------------------------------------------------------

     E    E    E    E    E    E    E    E    
E||------------------------------------------|
B||--(0)--(0)--(0)--(0)--(0)--(0)--(0)--(0)--|
G||------------------------------------------|
D||------------------------------------------|
A||------------------------------------------|
E||------------------------------------------|


   E    E    E    E    E    E    E    E    
------------------------------------------|
--(0)--(0)--(0)--(0)--(0)--(0)--(0)--(0)--|
------------------------------------------|
------------------------------------------|
------------------------------------------|
------------------------------------------|


   E    E    E    E    E    E    E    E    
------------------------------------------|
--(0)--(0)--(0)--(0)--(0)--(0)--(0)--(0)--|
------------------------------------------|
------------------------------------------|
------------------------------------------|
------------------------------------------|


                                     |--3--|  
   E    E    E    E    E    E    E   S  S  S  
---------------------------------------------|
--(0)--(0)--(0)--(0)--(0)--(0)--(0)----------|
-------------------------------------2s-3s-4-|
---------------------------------------------|
---------------------------------------------|
---------------------------------------------|


  Q    E  H         S  S    Q.      Q     Q     S  S  
-------------------------|--4b-----------------------|
--5-------7~--------5h-7-|----------5b----5~----5h-7-|
-------4-----------------|---------------------------|
-------------------------|---------------------------|
-------------------------|---------------------------|
-------------------------|---------------------------|


  Q    E  H         S  S    Q.      Q     Q     S  S  
-------------------------|--4b-----------------------|
--5-------7~--------5h-7-|----------5b----5~----5h-7-|
-------4-----------------|---------------------------|
-------------------------|---------------------------|
-------------------------|---------------------------|
-------------------------|---------------------------|


  Q    E  H         S  S    Q.      Q     Q     S  S  
-------------------------|--4b-----------------------|
--5-------7~--------5h-7-|----------5b----5~----5h-7-|
-------4-----------------|---------------------------|
-------------------------|---------------------------|
-------------------------|---------------------------|
-------------------------|---------------------------|


  Q    E  Q    E  Q        E   Q    E   E  Q    E   
------------------------|--------------------------|
--5-------4-------2\----|--------------------------|
-------4-------2--------|--1s--2----2s--4----------|
------------------------|--1s--2----2s--4----------|
------------------------|--------------------------|
------------------------|--------------------------|


  E  E  E  E  E  E  E  E     E  E  E  E  E  E  E  E   
--------------------------|--------------------x--x--|
--x-----x-----x-----x--x--|--x-----x-----x-----------|
-----x-----x-----x--------|-----x-----x-----x--------|
--------------------------|--------------------------|
--------------------------|--------------------------|
--------------------------|--------------------------|


  E  E  E  E  E  E  E  E     E  E  E  E  E  E  E  E   
--------------------------|--------------------x--x--|
--x-----x-----x-----x--x--|--x-----x-----x-----------|
-----x-----x-----x--------|-----x-----x-----x--------|
--------------------------|--------------------------|
--------------------------|--------------------------|
--------------------------|--------------------------|


  E  E  E  E  E  E  E  E     E  E  E  E  E  E  E  E   
--x-----x-----x-----x--x--|--x-----x-----x-----x--x--|
--------------------------|--------------------------|
-----x-----x-----x--------|-----x-----x-----x--------|
--------------------------|--------------------------|
--------------------------|--------------------------|
--------------------------|--------------------------|


  W                   W                 
-------------------|-------------------|
-------------------|-------------------|
-------------------|-------------------|
-------------------|-------------------|
-------------------|-------------------|
-------------------|-------------------|


  E  E  E  E  E  E  E  E     E  E  E  E  E  E  E  E   
--------------------------|--------------------x--x--|
--x-----x-----x-----x--x--|--x-----x-----x-----------|
-----x-----x-----x--------|-----x-----x-----x--------|
--------------------------|--------------------------|
--------------------------|--------------------------|
--------------------------|--------------------------|


  E  E  E  E  E  E  E  E     E  E  E  E  E  E  E  E   
--------------------------|--------------------x--x--|
--x-----x-----x-----x--x--|--x-----x-----x-----------|
-----x-----x-----x--------|-----x-----x-----x--------|
--------------------------|--------------------------|
--------------------------|--------------------------|
--------------------------|--------------------------|


  E  E  E  E  E  E  E  E     E  E  E  E  E  E  E  E   
--x-----x-----x-----x--x--|--x-----x-----x-----x--x--|
--------------------------|--------------------------|
-----x-----x-----x--------|-----x-----x-----x--------|
--------------------------|--------------------------|
--------------------------|--------------------------|
--------------------------|--------------------------|


  W                   W                   W                 
-------------------|-------------------|-------------------|
-------------------|-------------------|-------------------|
-------------------|-------------------|-------------------|
-------------------|-------------------|-------------------|
-------------------|-------------------|-------------------|
-------------------|-------------------|-------------------|


  W                   W                   W                 
-------------------|-------------------|-------------------|
-------------------|-------------------|-------------------|
-------------------|-------------------|-------------------|
-------------------|-------------------|-------------------|
-------------------|-------------------|-------------------|
-------------------|-------------------|-------------------|


  W                   W                   W                 
-------------------|-------------------|-------------------|
-------------------|-------------------|-------------------|
-------------------|-------------------|-------------------|
-------------------|-------------------|-------------------|
-------------------|-------------------|-------------------|
-------------------|-------------------|-------------------|


  W                   W                   W                 
-------------------|-------------------|-------------------|
-------------------|-------------------|-------------------|
-------------------|-------------------|-------------------|
-------------------|-------------------|-------------------|
-------------------|-------------------|-------------------|
-------------------|-------------------|-------------------|


  H        Q     E    E      E  E  E  E  Q    E   E    
----------------13b--13~--|--L--L--L-------------10s--|
--------------------------|---------------------------|
--------------------------|---------------------------|
--------------------------|---------------------------|
--------------------------|---------------------------|
--------------------------|---------------------------|


   H         Q    Q       W                   H         
--12~------------------|-------------------|-----------|
-----------------------|-------------------|-----------|
------------------9----|-------------------|-----------|
------------------9----|-------------------|-----------|
------------------7----|-------------------|-----------|
-----------------------|-------------------|-----------|


  W                   W                   W                 
-------------------|-------------------|-------------------|
-------------------|-------------------|-------------------|
-------------------|-------------------|-------------------|
-------------------|-------------------|-------------------|
-------------------|-------------------|-------------------|
-------------------|-------------------|-------------------|


  W                   W                   W                 
-------------------|-------------------|-------------------|
-------------------|-------------------|-------------------|
-------------------|-------------------|-------------------|
-------------------|-------------------|-------------------|
-------------------|-------------------|-------------------|
-------------------|-------------------|-------------------|


  W                   W                   W                 
-------------------|-------------------|-------------------|
-------------------|-------------------|-------------------|
-------------------|-------------------|-------------------|
-------------------|-------------------|-------------------|
-------------------|-------------------|-------------------|
-------------------|-------------------|-------------------|


  W                   W                   W                 
-------------------|-------------------|-------------------|
-------------------|-------------------|-------------------|
-------------------|-------------------|-------------------|
-------------------|-------------------|-------------------|
-------------------|-------------------|-------------------|
-------------------|-------------------|-------------------|


  W                   W                   W                 
-------------------|-------------------|-------------------|
-------------------|-------------------|-------------------|
-------------------|-------------------|-------------------|
-------------------|-------------------|-------------------|
-------------------|-------------------|-------------------|
-------------------|-------------------|-------------------|


  W                   W                   W                 
-------------------|-------------------|-------------------|
-------------------|-------------------|-------------------|
-------------------|-------------------|-------------------|
-------------------|-------------------|-------------------|
-------------------|-------------------|-------------------|
-------------------|-------------------|-------------------|


  W                   W                 
-------------------|-------------------|
-------------------|-------------------|
-------------------|-------------------|
-------------------|-------------------|
-------------------|-------------------|
-------------------|-------------------|


  H        Q     E    E      E  Q    H         E    
----------------13b--13~--|--L--L-------------10s--|
--------------------------|------------------------|
--------------------------|------------------------|
--------------------------|------------------------|
--------------------------|------------------------|
--------------------------|------------------------|


   H         E  E  Q       W                   H         
--12~--------L----------|-------------------|-----------|
------------------------|-------------------|-----------|
------------------------|-------------------|-----------|
------------------------|-------------------|-----------|
------------------------|-------------------|-----------|
------------------------|-------------------|-----------|


  W                   W                   W                 
-------------------|-------------------|-------------------|
-------------------|-------------------|-------------------|
-------------------|-------------------|-------------------|
-------------------|-------------------|-------------------|
-------------------|-------------------|-------------------|
-------------------|-------------------|-------------------|


  W                   W                   W                 
-------------------|-------------------|-------------------|
-------------------|-------------------|-------------------|
-------------------|-------------------|-------------------|
-------------------|-------------------|-------------------|
-------------------|-------------------|-------------------|
-------------------|-------------------|-------------------|


  W                   W                   W                 
-------------------|-------------------|-------------------|
-------------------|-------------------|-------------------|
-------------------|-------------------|-------------------|
-------------------|-------------------|-------------------|
-------------------|-------------------|-------------------|
-------------------|-------------------|-------------------|


  W                   W                   W                 
-------------------|-------------------|-------------------|
-------------------|-------------------|-------------------|
-------------------|-------------------|-------------------|
-------------------|-------------------|-------------------|
-------------------|-------------------|-------------------|
-------------------|-------------------|-------------------|


  W                   W                 
-------------------|-------------------|
-------------------|-------------------|
-------------------|-------------------|
-------------------|-------------------|
-------------------|-------------------|
-------------------|-------------------|


  PM PM PM        PM PM            PM PM        PM PM       
  E  E  E    Q    E  E    E     E  E  E    Q    E  E    E   
-----------------------------|-----------------------------|
-----------------------------|-----------------------------|
-----------------------------|-----------------------------|
--0--0--0--<>5----5--5--<>4--|--L--4--4--<>7----7--7--<>6--|
-----------------------------|-----------------------------|
-----------------------------|-----------------------------|


  Q.       E  H           E  S   S S   S S   S  
-----------------------|-----------------------|
-----------------------|-----------------------|
-----------------------|-----------9h----9h-11-|
--L------<>9--L--------|--L--9h-11----11-------|
-----------------------|-----------------------|
-----------------------|-----------------------|


  Q     E   H          E      E   E    E    H         E   
-----------12~--------12b--|--L--12b--10b----------------|
--9----12------------------|---------------12~--------L--|
---------------------------|-----------------------------|
---------------------------|-----------------------------|
---------------------------|-----------------------------|
---------------------------|-----------------------------|


                         |--3--|       
  E   Q      E    Q      S  S  S  E    
--------------------------------------|
-----14b----14b--14b----12-14-12------|
---------------------------------14~--|
--------------------------------------|
--------------------------------------|
--------------------------------------|


               |--3--|              
  H        E   S  S  S  S  S  S  S  
-----------------------------------|
-----------------------------------|
--L--------L--13-14-13-11-13-11----|
--------------------------------14-|
-----------------------------------|
-----------------------------------|


   Q.       Q     E   E    E   
------------------------------|
------------------------------|
--11~------14----14--16s--18--|
------------------------------|
------------------------------|
------------------------------|


   E   E   E   Q       E  E   E   
---------------------------------|
---------------------------------|
--16s--L--13--13~----/21--L--21--|
---------------------------------|
---------------------------------|
---------------------------------|


   E   E  E   Q     E   E   E      Q.       H           E   
-------------------------------|---------------------------|
-------------------19b-----19--|--19b------19~-------------|
--21--18-----21----------------|----------------------/16--|
-------------------------------|---------------------------|
-------------------------------|---------------------------|
-------------------------------|---------------------------|


   E   E   E    H          E      E   E   E    H        E   
------------------------------|----------------------------|
--17------19b~--L-------------|--17------16b~--L--------L--|
------16-----------------/16--|------16--------------------|
------------------------------|----------------------------|
------------------------------|----------------------------|
------------------------------|----------------------------|


                         |--3--|       
  E   Q      E    Q      S  S  S  E    
--------------------------------------|
-----14b----14b--14b----12-14-12------|
---------------------------------14~--|
--------------------------------------|
--------------------------------------|
--------------------------------------|


               |--3--|              
  H        E   S  S  S  S  S  S  S  
-----------------------------------|
-----------------------------------|
--L--------L--13-14-13-11-13-11----|
--------------------------------14-|
-----------------------------------|
-----------------------------------|


   Q     E  Q    E  S  S E     E  E  E  S   S E   E   Q     
----------------------------|------------------------------|
----------------------------|------------------------------|
--11\-------6----6--6s-9-L--|--9--8-----9s-11-L--11--13----|
----------------------------|------------------------------|
----------------------------|------------------------------|
----------------------------|------------------------------|


   Q.       Q     E   Q         W                  
----------------------------|---------------------|
-----------12----12--12b----|--12~----------------|
--13b-----------------------|---------------------|
----------------------------|---------------------|
----------------------------|---------------------|
----------------------------|---------------------|


    W                   W                 
|--------------------|-------------------|
|--------------------|-------------------|
|*-------------------|-------------------|
|*-------------------|-------------------|
|--------------------|-------------------|
|--------------------|-------------------|


  W                   W                   W                 
-------------------|-------------------|-------------------|
-------------------|-------------------|-------------------|
-------------------|-------------------|-------------------|
-------------------|-------------------|-------------------|
-------------------|-------------------|-------------------|
-------------------|-------------------|-------------------|


  W                   W                 
-------------------|-------------------|
-------------------|-------------------|
-------------------|-------------------|
-------------------|-------------------|
-------------------|-------------------|
-------------------|-------------------|


  W                       W                  
--------------------||----------------------|
--------------------||----------------------|
-------------------*||----------------------|
-------------------*||--<>5~----------------|
--------------------||----------------------|
--------------------||----------------------|


    SH                                                 
    H.           S  S  S  S    Q    E  H         S  S  
----------------------------|-------------------------|
----------------------------|--5-------7~--------5h-7-|
----------------------------|-------4-----------------|
--<>7------------2s-4s-7s-9-|-------------------------|
----------------------------|-------------------------|
----------------------------|-------------------------|


  Q.      Q     Q     S  S    Q    E  H         S  S  
--4b-----------------------|-------------------------|
----------5b----5~----5h-7-|--5-------7~--------5h-7-|
---------------------------|-------4-----------------|
---------------------------|-------------------------|
---------------------------|-------------------------|
---------------------------|-------------------------|


  Q.      Q     Q     S  S    Q    E  H         S  S  
--4b-----------------------|-------------------------|
----------5b----5~----5h-7-|--5-------7~--------5h-7-|
---------------------------|-------4-----------------|
---------------------------|-------------------------|
---------------------------|-------------------------|
---------------------------|-------------------------|


  Q.      Q     Q     S  S    Q    E  Q    E  Q      
--4b-----------------------|------------------------|
----------5b----5~----5h-7-|--5-------4-------2\----|
---------------------------|-------4-------2--------|
---------------------------|------------------------|
---------------------------|------------------------|
---------------------------|------------------------|


  E  E  E  E  E  Q.          W                  
--2---------------------|----------------------|
-----2-----------4------|--<>5~----------------|
--------2-----4---------|----------------------|
-----------4------------|----------------------|
------------------------|----------------------|
------------------------|----------------------|


  W                   W                   W                 
-------------------|-------------------|-------------------|
--L----------------|--L----------------|-------------------|
-------------------|-------------------|-------------------|
-------------------|-------------------|-------------------|
-------------------|-------------------|-------------------|
-------------------|-------------------|-------------------|


  W                  
-------------------||
-------------------||
-------------------||
-------------------||
-------------------||
-------------------||

Rythm Guitar ----------------------------------------------------------------

     E  S  E  S E  S  S S S E   E     E  S  E  S E  S  S S S  E  E   
E||--------------------------------|--------------------------------|
B||--------------------------------|-------------------------10--9--|
G||--9--9-11--9-9--9-11-9-9-9--11--|--9--9-11--9-9--9-11-9-9--9--9--|
D||--9--9--9--9-9--9--9-9-9-9---9--|--9--9--9--9-9--9--9-9-9--9--9--|
A||--------------------------------|--------------------------------|
E||--------------------------------|--------------------------------|


  E  S  E  S E  S  S S S E   E     E  S  E  S E  S  S S S  E  E   
--------------------------------|--------------------------------|
--------------------------------|-------------------------10--9--|
--9--9-11--9-9--9-11-9-9-9--11--|--9--9-11--9-9--9-11-9-9--9--9--|
--9--9--9--9-9--9--9-9-9-9---9--|--9--9--9--9-9--9--9-9-9--9--9--|
--------------------------------|--------------------------------|
--------------------------------|--------------------------------|


  Q.     H        E     W                   Q.     H        E   
---------------------|-------------------|---------------------|
---------------------|-------------------|---------------------|
---------------------|-------------------|---------6--------L--|
---------9--------L--|--L----------------|---------6--------L--|
---------7--------L--|--L----------------|--4------4--------L--|
--7------7--------L--|--L----------------|---------------------|


  W                   Q.     H        E     W                 
-------------------|---------------------|-------------------|
-------------------|---------------------|-------------------|
--L----------------|---------2--------L--|--L----------------|
--L----------------|---------2--------L--|--L----------------|
--L----------------|--0------0--------L--|--L----------------|
-------------------|---------------------|-------------------|


  Q.     H        E     H        E  E  Q       W                 
---------------------|----------------------|-------------------|
---------------------|----------------------|-------------------|
---------------------|--------------2-------|-------------------|
---------4--------L--|--------------2--4----|-------------------|
---------4--------L--|-----------------4----|-------------------|
--2------2--------L--|----------------------|-------------------|


  W                   W                   W                 
-------------------|-------------------|-------------------|
-------------------|-------------------|-------------------|
-------------------|-------------------|-------------------|
-------------------|-------------------|-------------------|
-------------------|-------------------|-------------------|
-------------------|-------------------|-------------------|


  W                   H        Q    E  S S  
-------------------|-----------------------|
-------------------|-----------------------|
-------------------|-------------------4-4-|
-------------------|-----------------------|
-------------------|-----------------------|
-------------------|-----------------------|


  Q    S  S Q    E  E  E     E  E  E  Q    E  Q     
--------------------------|------------------------|
--------------------------|------------------------|
--4----4s-2-2----2--1--1--|------------------------|
--------------------------|--4--2--1---------------|
--------------------------|-----------4----2--2----|
--------------------------|------------------------|


  W                   W                   W                 
-------------------|-------------------|-------------------|
-------------------|-------------------|-------------------|
-------------------|-------------------|-------------------|
-------------------|-------------------|-------------------|
-------------------|-------------------|-------------------|
-------------------|-------------------|-------------------|


  W                   W                   H        Q    E  S S  
-------------------|-------------------|-----------------------|
-------------------|-------------------|-----------------------|
-------------------|-------------------|-------------------4-4-|
-------------------|-------------------|-----------------------|
-------------------|-------------------|-----------------------|
-------------------|-------------------|-----------------------|


  E   E  E  Q    E  Q       Q    E  Q    E  Q     
-------------------------|-----------------------|
-------------------------|-----------------------|
--4s--2--2--1------------|-----------------------|
-----------------4--2----|--1----1---------------|
-------------------------|----------4----2--2----|
-------------------------|-----------------------|


  E  E  E  Q    Q.        E  E  E  H        E   
----------------4------|-----------5--------L--|
-----------5-----------|-----------5--------L--|
--------4--------------|--------2--2--------L--|
-----6-----------------|-----2-----------------|
--4--------------------|--5--------------------|
-----------------------|-----------------------|


  H        Q    E  S S    E   E  E  E  E  E  E  E   
-----------------------|---------------------------|
-----------------------|---------------------------|
--4--------L----L--4-4-|--4s--1--1-----------------|
--4--------L----L------|------------4--4--2--2--2--|
--2--------L----L------|---------------------------|
-----------------------|---------------------------|


  E  E  E  Q    Q.        E  E  E  Q    Q.      
----------------4------|----------------5------|
-----------5-----------|-----------5-----------|
--------4--------------|--------2--------------|
-----6-----------------|-----2-----------------|
--4--------------------|--5--------------------|
-----------------------|-----------------------|


     PM PM    PM PM                                    
  E  E  E  E  E  E  E  E     E  E  E  Q    S  S E  E   
--------------------------|---------------------------|
--------------------------|---------------------------|
--4--------4--------4--2--|--4--4-----2----2s-4-4--4--|
--4--------4--------4--2--|--4--4-----2----2s-4-4--4--|
--2--2--2--2--2--2--2--0--|--2--2-----0----0s-2-2--2--|
--------------------------|---------------------------|


  E  E  E  Q    Q.        E  E  E  Q    Q.      
----------------4------|----------------5------|
-----------5-----------|-----------5-----------|
--------4--------------|--------2--------------|
-----6-----------------|-----2-----------------|
--4--------------------|--5--------------------|
-----------------------|-----------------------|


  Q.     E  E  E  E   E     Q    E  Q    E  E  E   
-------------------------|------------------------|
------------------6b--6--|--L---------------------|
-------------------------|------------------9-----|
------------6--9---------|-------9--6----9-----7--|
--7------9---------------|------------------------|
-------------------------|------------------------|


  Q    E  Q    E  Q       E  E  E  H        E     H         
-----------------------|-----------------------|-----------|
-----------------------|-----------------------|-----------|
--9---------------9----|--9--9-----------------|-----------|
-------7-------7-------|--9--9-----9--------L--|-----------|
----------9------------|--7--7-----9--------L--|-----------|
-----------------------|-----------7--------L--|-----------|


  W                   W                   Q    E  E  E  E  E  E   
-------------------|-------------------|-------------------------|
-------------------|-------------------|-------------------------|
-------------------|-------------------|--9----------------------|
-------------------|-------------------|--9----------------------|
-------------------|-------------------|--7----x--x--x--x--x--x--|
-------------------|-------------------|-------------------------|


  E  E  E  E  E  E  Q       Q    E  E  E  E  E  E   
-------------------------|-------------------------|
-------------------------|-------------------------|
-----9--------9-----9----|--6----------------------|
-----9--------9-----9----|--6----------------------|
--x--7--x--x--7--x--7----|--4----x--x--x--x--x--x--|
-------------------------|-------------------------|


  E  E  E  E  E  E  Q       Q    E  E  E  E  E  E   
-------------------------|-------------------------|
-------------------------|-------------------------|
-----6--------6-----6----|--2----------------------|
-----6--------6-----6----|--2----------------------|
--x--4--x--x--4--x--4----|--0----x--x--x--x--x--x--|
-------------------------|-------------------------|


  E  E  E  E  E  E  Q       Q    E  E  E  E  Q     
-------------------------|------------------------|
-------------------------|------------------------|
-----2--------2-----2----|------------------------|
-----2--------2-----2----|--4----------------4----|
--x--0--x--x--0--x--0----|--4----------------4----|
-------------------------|--2----x--x--x--x--2----|


  Q.     H        E     E  E  E  Q    Q.        E  E  E  H        E   
---------------------|----------------4------|-----------5--------L--|
---------------------|-----------5-----------|--------5--5--------L--|
--2------4--------L--|--------4--------------|-----------2--------L--|
--2------4--------L--|-----6-----------------|-----2-----------------|
--0------2--------L--|--4--------------------|--5--------------------|
---------------------|-----------------------|-----------------------|


  H.           E  S S    E   E  E  E  E  E  E  E   
----------------------|---------------------------|
--5------------L------|---------------------------|
--4------------L--4-4-|--4s--1--1-----------------|
--2------------L------|------------4--4--2--2--2--|
----------------------|---------------------------|
----------------------|---------------------------|


  E  E  E  Q    Q.        E  E  E  Q    Q.      
----------------4------|----------------5------|
-----------5-----------|-----------5-----------|
--------4--------------|--------2--------------|
-----6-----------------|-----2-----------------|
--4--------------------|--5--------------------|
-----------------------|-----------------------|


     PM PM    PM PM                                    
  E  E  E  E  E  E  E  E     E  E  E  Q    S  S E  E   
--------------------------|---------------------------|
--------------------------|---------------------------|
--4--------4--------4--2--|--4--4-----2----2s-4-4--4--|
--4--------4--------4--2--|--4--4-----2----2s-4-4--4--|
--2--2--2--2--2--2--2--0--|--2--2-----0----0s-2-2--2--|
--------------------------|---------------------------|


  E  E  E  Q    Q.        E  E  E  Q    Q.      
----------------4------|----------------5------|
-----------5-----------|-----------5-----------|
--------4--------------|--------2--------------|
-----6-----------------|-----2-----------------|
--4--------------------|--5--------------------|
-----------------------|-----------------------|


  Q.     E  E  E  E   E     Q    E  Q    E  E  E   
-------------------------|------------------------|
------------------6b--6--|--L---------------------|
-------------------------|------------------9-----|
------------6--9---------|-------9--6----9-----7--|
--7------9---------------|------------------------|
-------------------------|------------------------|


  Q    E  Q    E  Q       E  E  E  Q.     Q       H         
-----------------------|-----------------------|-----------|
-----------------------|-----------------------|-----------|
--9---------------9----|--9--9-----------------|-----------|
-------7-------7-------|--9--9-----9-----------|-----------|
----------9------------|--7--7-----9-----------|-----------|
-----------------------|-----------7-----------|-----------|


  Q.     H        E     Q.     H        E     Q.     H        E   
---------------------|---------------------|---------------------|
---------5--------L--|--5------5--------L--|---------5-----------|
---------4--------L--|--4------4--------L--|---------4-----------|
---------2--------L--|--2------2--------L--|---------6-----------|
--2------------------|---------------------|--4---------------4--|
---------------------|---------------------|---------------------|


  Q.     Q.      Q       E   E  E  Q.      Q     
----------------------|-------------------------|
--4------5------------|-------------------------|
--4------4------/4----|--4s--2--2--2------/4----|
--6------6------/4----|--4s--2--2--2------/4----|
----------------------|-------------------------|
----------------------|-------------------------|


  E   E  E  H        E     E  E  E  Q    E  Q     
------------------------|----------------2-------|
------------------------|-------------------2----|
--4s--2--2--2--------L--|-----------2-------2----|
--4s--2--2--2--------L--|--------4----------2----|
------------------------|-----4------------------|
------------------------|--2---------------------|


  Q.     H        E     Q.     H        E     W                 
---------------------|---------------------|-------------------|
---------------------|---------8--------L--|-------------------|
---------4--------L--|---------7--------L--|--7----------------|
---------4--------L--|---------5--------L--|--5----------------|
--0------2--------L--|--5------------------|--5----------------|
---------------------|---------------------|-------------------|


  E  E  E  Q    E  Q       E  E  E  Q    E  Q     
------------------------|----------------3-------|
----------------7-------|-----------5-------5----|
-----------7-------7----|-----4--5---------------|
-----4--7---------------|--5---------------------|
--5---------------------|------------------------|
------------------------|------------------------|


  Q.     H        E     W                   W                 
---------------------|-------------------|-------------------|
---------8--------L--|-------------------|-------------------|
---------7--------L--|--7----------------|-------------------|
--5------5--------L--|--7----------------|-------------------|
---------------------|--5----------------|-------------------|
---------------------|-------------------|-------------------|


  W                   W                   E  Q    E   
-------------------|-------------------|-------------|
-------------------|-------------------|-------------|
-------------------|-------------------|-------------|
-------------------|-------------------|--9----------|
-------------------|-------------------|--9----------|
-------------------|-------------------|--7----------|


  H.           E  E     W                   W                 
---------------------|-------------------|-------------------|
---------------------|-------------------|-------------------|
--9------------L-----|-------------------|--7----------------|
--9------------L--9--|--L----------------|--7----------------|
--7------------L--9--|--L----------------|--5----------------|
------------------7--|--L----------------|-------------------|


  W                   E  E  E  Q    E  E  E   
-------------------|-------------------------|
-------------------|-------------------------|
-------------------|-----------2-------2-----|
--7----------------|--------4-------4-----4--|
--7----------------|-----4-------------------|
--5----------------|--2----------------------|


  E  E  E  Q    E  E  E     E  E  E   E  E  E   E  E   
-------------------------|----------------------4-----|
-------------------------|--5-----5b-----5--5b--------|
-----------4-------4--6--|-----2------2------------2--|
--------6-------6--------|----------------------------|
-----6-------------------|----------------------------|
--4----------------------|----------------------------|


  E   E  E  S  S H            E  E  E  Q    E  Q     
------4--------------------|------------------------|
--5b-----0--5h-7-L~--------|--5--------5-------5----|
---------------------------|--4--------4-------4----|
---------------------------|--6--x--x--6----x--6----|
---------------------------|------------------------|
---------------------------|------------------------|


  E  E  E  Q    E  Q       E  E  E  Q    E  Q     
------------------------|------------------------|
------------------------|--3--------3-------3----|
--4--------4-------4----|--2--------2-------2----|
--4--------4-------4----|--4--x--x--4----x--4----|
--2--x--x--2----x--2----|------------------------|
------------------------|------------------------|


  E  E  E  Q    E  Q       E  E  E  E  E  E  E  E   
------------------------|--------------------------|
------------------------|--------------------------|
--2--------2-------2----|-----------2--------------|
--2--------2-------2----|--------4-----4-----2-----|
--0--x--x--0----x--0----|-----4-----------4-----4--|
------------------------|--2-----------------------|


  E  E  E  E  E  E  E  E     E  E  E  E  E  E  E  E   
--------------------------|--------------------------|
--------------------------|-----------------5--------|
-----------4--------4-----|--------6-----6-----6-----|
--------6-----6--------6--|-----------7-----------7--|
-----6-----------6--------|-----7--------------------|
--4-----------------------|--5-----------------------|


  E  E  E  E   H              Q.     H        E   
--4--2-------------------||----------------------|
--------5----------------||----------5--------L--|
-----------4b--4~--------||*---------4--------L--|
-------------------------||*---------2--------L--|
-------------------------||---2------------------|
-------------------------||----------------------|


  Q.     H        E     Q.     H        E     E   E  E  Q.      Q     
---------------------|---------------------|-------------------------|
--5------5--------L--|---------5-----------|--4h--5-----5------------|
--4------4--------L--|---------4-----------|--4---L-----4------/4----|
--2------2--------L--|---------6-----------|--6---L-----6------/4----|
---------------------|--4---------------4--|---------4---------------|
---------------------|---------------------|-------------------------|


  E   E  E  Q.      Q       E   E  E  H        E   
-------------------------|------------------------|
-------------------------|------------------------|
--4s--2--2--2------/4----|--4s--2--2--2--------L--|
--4s--2--2--2------/4----|--4s--2--2--2--------L--|
-------------------------|------------------------|
-------------------------|------------------------|


  E  E  E  Q    E  Q       Q.     H        E     
----------------2-------|----------------------||
-------------------2----|----------------------||
-----------2-------2----|---------4--------L--*||
--------4----------2----|---------4--------L--*||
-----4------------------|--0------2--------L---||
--2---------------------|----------------------||


  E  E  E  E  E  E  E  E     E  E  E  E  E  E  E  E   
--------------------------|--------------------------|
--------------------------|--------------5-----------|
--------5-----5-----------|--------7--------7-----7--|
-----5-----5-----5-----5--|--7-----------------------|
--3-----------------3-----|-----5-----5--------5-----|
--------------------------|--------------------------|


  Q.     H        E     W                   Q.     H        E   
---------------------|-------------------|---------------------|
---------------------|-------------------|---------------------|
---------------------|-------------------|---------6--------L--|
---------9--------L--|--L----------------|---------6--------L--|
---------9--------L--|--L----------------|--4------4--------L--|
--7------7--------L--|--L----------------|---------------------|


  W                   Q.     H        E     W                 
-------------------|---------------------|-------------------|
-------------------|---------------------|-------------------|
--L----------------|---------2--------L--|--L----------------|
--L----------------|---------2--------L--|--L----------------|
--L----------------|--0------0--------L--|--L----------------|
-------------------|---------------------|-------------------|


  Q.     H        E     H        H           W                 
---------------------|--------------------|-------------------|
---------------------|--------------------|-------------------|
---------------------|--2--------4--------|-------------------|
---------4--------L--|--2--------4--------|--2----------------|
---------4--------L--|--0--------2--------|--2----------------|
--2------2--------L--|--------------------|--0----------------|


  W                   W                   W                 
-------------------|-------------------|-------------------|
-------------------|-------------------|-------------------|
-------------------|-------------------|-------------------|
--L----------------|--L----------------|-------------------|
--L----------------|--L----------------|-------------------|
--L----------------|--L----------------|-------------------|


  W                  
-------------------||
-------------------||
-------------------||
-------------------||
-------------------||
-------------------||




Duration Legend
---------------
W - whole
H - half
Q - quarter
E - 8th
S - 16th
T - 32nd
X - 64th
. - note dotted
|-n-|  - n-tuplets


Tablature Legend
----------------
L - tied note
x - dead note
g - grace note
(n) - ghost note
> - accentuded note
NH - natural harmonic
AH - artificial harmonic
TH - tapped harmonic
SH - semi harmonic
PH - pitch harmonic
h - hammer on
p - pull off
b - bend
br - bendRelease
pb - preBend
pbr - preBendRelease
brb - bendReleaseBend
\n/ - tremolo bar dip
\n - tremolo bar dive
-/n - tremolo bar Release up
/n\ - tremolo bar inverted dip
/n - tremolo bar return
-\n - tremolo bar Release down
S - shift slide
s - legato slide
/ -  slide into from below or out of upwards
\ -  slide into from above or out of downwards
~ - vibrato
W - wide vibrato
tr - trill
TP - tremolo picking
T - tapping
S - slap
P - pop
< - fade in
^ - brush up
v - brush down
Tap to rate this tab
# A B C D E F G H I J K L M N O P Q R S T U V W X Y Z