Guitaretab - guitar tabs
Song name
# A B C D E F G H I J K L M N O P Q R S T U V W X Y Z

Crush 40 - Live And Learn tab

I worked for a few days on this. It's split up by distinguishable parts, not bars or 
anything, sorry. I'm not so sure about the last part. I'll upload a lesson to 
YouTube if requested.

E|--14b16r12--9--7--9--9--7-----------------------|
B|---------------------------9--7--9--7--7--------|
G|------------------------------------------9-----|
D|------------------------------------------------|
A|------------------------------------------------|
E|------------------------------------------------|

E|--------------------------5--|
B|--7--------------------------|
G|-----9--6--------7b9b7r6-----|
D|-----------9--7--------------|
A|-----------------------------|
E|-----------------------------|

E|--7b9b7r5--0--10b12b10------|
B|------------------------10--|
G|----------------------------|
D|----------------------------|
A|----------------------------|
E|----------------------------|

E|------12------14------12--14b16r12--19--|
B|--12------12------12--------------------|
G|----------------------------------------|
D|----------------------------------------|
A|----------------------------------------|
E|----------------------------------------|
[ Tab from: http://www.guitaretab.com/c/crush-40/307153.html ]
E|-------------17--16--------------|
B|---------17----------17----------|
G|--14-17------------------17------|
D|--14/17----------------------18--|
A|---------------------------------|
E|---------------------------------|

E|---------------------------------------------------------------------17-|
B|--------------------------------------------------------15b17r13h15-----|
G|-----------------------------11--11/13--12--14b15r14--------------------|
D|----------12/14--11--11--14---------------------------------------------|
A|--11--14----------------------------------------------------------------|
E|------------------------------------------------------------------------|

E|-----------------------2p0h2--4--2--0--7--|
B|---------4p0h4--5p4h5---------------------|
G|--4p2h4-----------------------------------|
D|------------------------------------------|
A|------------------------------------------|
E|------------------------------------------|

E|------12--14--12--17--16------16----------17--16--21--20--|
B|--13----------------------17----------17------------------|
G|----------------------------------17----------------------|
D|----------------------------------------------------------|
A|----------------------------------------------------------|
E|----------------------------------------------------------|
Related for Live And Learn tab
Live And Learn chords by Crush 40