Song name
# A B C D E F G H I J K L M N O P Q R S T U V W X Y Z

Crush 40 - Fight The Knight tab

|-----------------------------------------------|
|-----------------------------------------------|
|------7---7--7--7--7---------------------------|
|------7---7--7--7--7---------------------------|
|------5---5--5--5--5----0-0-3-3-0-0------------|
|------5---5--5--5--5----------------1----------|

|-----------------------------------------------|
|-----------------------------------------------|
|------7---7--7--7--7---------------------------|
|------7---7--7--7--7--------------0-2----------|
|------5---5--5--5--5----0-0-3-3-0--------------|
|------5---5--5--5--5---------------------------|


|-------------------------------------------------|
|-------------------------------------------------|
|------7---7--7--7--7----------------------/7-----|
|------7---7--7--7--7----------------------/7-----|
|------5---5--5--5--5----0-0-3-3-0-0-------/5-----|
|------5---5--5--5--5----------------1-3---/5-----|

|-------------------------------------------------|
|-----------------------------------------7-------|
|-----------------------------------------7-------|  (x2)
|-3-3-3-3--5-5-5-5--3-3-3-3--5-5-5-5--3---5-------|
|-3-3-3-3--5-5-5-5--3-3-3-3--5-5-5-5--3-----------|
|-1-1-1-1--3-3-3-3--1-1-1-1--3-3-3-3--1-----------|

|------------------------------------|
|------------------------------------|
|---7-7-7-7--7-7-7-------------------|
|---7-7-7-7--7-7-7---10--9--5--------| (x2)
|---5-5-5-5--5-5-5---10--9--5--------|
|-0------------------8---7--3--------|

Repeat from the beginning till the end
Tap to rate this tab
 
# A B C D E F G H I J K L M N O P Q R S T U V W X Y Z