Song name
# A B C D E F G H I J K L M N O P Q R S T U V W X Y Z

Crush Luther - Cools tab

----------------------------------------------------------------------------
			     THE COOLS - Crush Luther
----------------------------------------------------------------------------
Tabbed by: TeenagerFrmMars
Email: demolition.subject_a@hotmail.com

Tuning: standard

[INTRO/VERSE] x2  clean
e|------------------------------------------|
B|------------------------------------------|
G|------------------------------------------|
D|---6---------6---6-9-7---6---6------------|
A|-7---9-6-7---7---------9-----7------------|
E|-----------0---0-----------0---0-0-5-4-2-0|
										
e|----------------------------------------------------------------|	
B|----------------------------------------------------------------|
G|-----------------6---6---6---6---9----9----9----9----8---8---8--|      
D|-6---6---6---6---7---7---7---7---11---11---11---11---9---9---9-6|
A|-7---7---7---7-----0---0---0---0----0----0----0----0---0---0---7|
E|---0---0---0---0-----------------------------------------------0|

“She said…”
e|------------------------|  |------------------|
B|-------------5----------|  |------------------|
G|-1-----9-----6-----1----|  |-9----------------|
D|-2-x8--6-x8--6-x8—-2-x8-|x2|-6—let it ring----|
A|-2-----7-----4-----2----|  |-7----------------|
E|------------------------|  |-0----------------|

[2nd VERSE]
e|----------------------------------------------|
B|----------------------------------------------|
G|----------------------------------------------|
D|---6-------6-----6-9-7---6--6-------------6---|
A|-7---9-6---7-x5--------9----7-x5----------7-x5|
E|-----------0----------------0----0-5-4-2--0---|
pm           *                *             *

e|-------------------------------------------|
B|-------------------------------------------|
G|-------6-----9-----8-----------------------|
D|-6-----7-----11----9-----6-----------------|
A|-7-x5--0-x5--0—x5--0-x5--7-----------------|
E|-0-----------------------0-----------------|
pm *     *     *     *
[CHORUS] with extra thingy
e|-------------------------------------------------------|------|
B|-------------------------5-----------------------------|------|
G|-1-----9-----1-----9-----6-----------------------------|--1---|
D|-2-x8--6-x8--2-x8--6—x8--6-x8—-6-----7-----6-----7-----|--2---|
A|-2-----7-----2-----7-----4-----6-x3--7-x6--6-x3--7—x6--|--2---|
E|-------------------------------4-----5-----4-----5-----|--0---|

“Oh no, oh no…”
e|--------------------------------------------|
B|-------4------------------------------------|
G|-1-----4-----1------------------------------|
D|-2-x5--4-x5--2-let it ring------------------|
A|-2-----2-----2------------------------------|
E|-0-----------0------------------------------|

REPEAT [INTRO/VERSE] RIFF…then

“ I said…”
e|--------------|  |---------------------|
B|--------------|  |---------------------|
G|-1-----9------|  |-------9-------------|
D|-2-x8--6-x8—--|x4|-------6-------------|
A|-2-----7------|  |-------7------\------|
E|-0-----0------|  |---------------\-----|
  Alternate,      end on   ^   

[CHORUS] with a pick slide (distortion optional)
e|-------------------------------------------------------|------|
B|-------------------------5-----------------------------|------|
G|-1-----9-----1-----9-----6-----------------------------|--1---|
D|-2-x8--6-x8--2-x8--6—x8--6-x8—-6-----7-----6-----7-----|--2---|
A|-2-----7-----2-----7-----4-----6-x3--7-x6--6-x3--7—x6--|--2---|
E|-------------------------------4-----5-----4-----5-----|--0---|
Tremolo pick these               ^           ^

“We had this flag…”
e|-----------------------------------------------------|
B|-5-------------------------------------4-------------|
G|-6-----------------------------1--9----4-----9-------|
D|-6-x8--6-----7-----6-----7-----2--7-x5-4-x5--7-------|
A|-4-----6-x3--7-x6--6-x3--7-x6--2--6----2-----6-------|
E|-------4-----5-----4-----5-----0---------------------|

End on 
e|----|
B|----|
G|-1--|
D|-2--|
A|-2--|
E|-0--|





| /  slide up
| \  slide down
| h  hammer-on
| p  pull-off
| ~  vibrato
| +  harmonic
| x  Mute note
============================================================================

Tap to rate this tab
# A B C D E F G H I J K L M N O P Q R S T U V W X Y Z